» » »

Down, Hail The Leaf Tabs (ver.1)

Artists:  A B C D E F G H I J K L M N O P Q R S T U V W X Y Z # 

Hail The Leaf Tabs (ver.1)

Down Tabs
Rating:
5/5 (1 vote)
Hard to play? Try these video lessons and learn fast.
                -------------------------------------------------------------------
                     Down-Hail the Leaf
-------------------------------------------------------------------

"This next song goes out to all the dope smokers, and I tell you,
after being on this f**king earth for 41 goddamn years, I still 
smoke to this day. So this goes out to all of us, all those cultivating"
-Phil Anselmo


Verse
|-------------------|------------------|    |----|
|-------------------|------------------|    |----|
|-------------------|------------------|    |----|
|-10-10-10-9-9-9/13-|-10-10-10-9-9-9\6-| x2 |----|
|-0--0--0--0-0-0/0--|-0--0--0--0-0-0\0-|    |-8\-|
|-------------------|------------------|    |-6\-|


Chorus
|-----------------|-----------------------|
|-----------------|-----------------------|
|-----------------|-----------------------|
|---------2-------|---2---------0h2p0h2p0-|
|-----------------|-----------------------|
|-0-0-3-0---0-0-3-|-0---0-0-3-0-----------|

|------------------|------------------------|
|------------------|------------------------|
|------------------|------------------------|
|---------2b-------|---2b---------0h2p0h2p0-|
|------------------|------------------------|
|-0-0-3-0----0-0-3-|-3----0-0-3-0-----------|

|------------------|------------------|
|------------------|------------------|
|------------------|------------------|
|---------2b-------|-------------3/10-|
|----------------5-|-5-5-5-3-3---3/0--|
|-0-0-3-0----0-0-3-|-3-3-3-1-1-1-1----|


Verse (variation)
|----------------------|----|---------|
|----------------------|----|---------|
|----------------------|----|---------|
|-10-10-10-12-12-12/14-|-x4-|-x--x----|
|-0--0--0--0--0--0--0--|----|-x--x--7-|
|----------------------|----|-x--x--5-|


Interlude
|------------|--------------|
|------------|--------------|
|---Bong-----|--------------|
|---Solo-----|--------------|
|------------|-5--3-3-3-6\x-|
|------------|-3--1-1-1-4\x-|

|-----------------|--------------|
|-----------------|--------------|
|-----------------|--------------|
|-----------------|--------------|
|-5-5-5-3-3-8-6\x-|-5--3-3-8-6\3-| X3
|-3-3-3-1-1-6-4\x-|-3--1-1-6-4\1-|

|-------------------------|----------------------|
|-------------------------|----------------------|
|-------------------------|----------------------|
|-12-12-12-10-10-10-13\10-|---12--10-10-10-13\10-|
|-10-10-10-8--8--8--11\8--|---10--8--8--8--11\8--| X3
|-------------------------|-x--------------------|

 
|-----------------|
|-----------------|
|-----------------|
|-----------------|
|-2-2-2-2-2-2-2-2-|x3
|-0-0-0-0-0-0-0-0-|

|------------|
|------------|
|------------|
|----x-x-x-x-|
|-2--x-x-x-x-|
|-0--x-x-x-x-|

|-----------------|-------------------|----------------------|
|-----------------|-------------------|----------------------|
|-----------------|-------------------|----------------------|
|-9-------9-------|---9-----7/9---7/9-|-------9-----7/9---7/-|
|-7-------7-------|---7-----5/7---5/7-|-------7-----5/7---5/-|X2
|-0-0-0-0-0-0-0-0-|-0-0-0-0-0---0-0---|-0-0-0-0-0-0-0---0-0--|

Outro
|---------------|------------|---------------------------------|
|-10b-10b-10br8-|------------|---------------------------------|
|---------------|-9b-9b-9br7-|---------------------------------|
|---------------|------------|---------9---------9-----7/9-----|
|---------------|------------|---------7---------7-----5/7-----|
|---------------|------------|-0-0-0-0-0-0-0-0-0-0-0-0-0---0-0-|

|-17b-17b-17br15-|----------------|---------------------------------|
|----------------|-17b-17b-17br15-|---------------------------------|
|----------------|----------------|---------------------------------|
|----------------|----------------|---------9---------9-----7/9-----|
|----------------|----------------|---------7---------7-----5/7-----|
|----------------|----------------|-0-0-0-0-0-0-0-0-0-0-0-0-0---0-0-|

|---------------|-------------|
|-10b-10b-10br8-|-------------|
|---------------|-9b-9b-9-7\x-|
|---------------|-------------|
|---------------|-------------|
|---------------|-------------|

|-17b-17b-17br15-|-----------------|
|----------------|-17b-17b-17-15/x-|
|----------------|-----------------|
|----------------|-----------------|
|----------------|-----------------|
|----------------|-----------------|


************************************

| /   slide up
| \   slide down
| h   hammer-on
| p   pull-off
| ~   vibrato
| +   harmonic
| x   Mute note
| b   Bend
| pb  Pre-bend
| br  Bend release
| pbr Pre-bend release
| brb Bend release bend

************************************
            

comments powered by Disqus
↑ Back to top | Down Tabs for Hail The Leaf. Lyrics for acoustic guitar and electric guitar. Tablatures and chords are parodies/interpretations of the original songs. You may use it for private study, scholarship, research or language learning purposes only