» » »

3 Suns And 1star Tabs (ver.1)

Artists:  A B C D E F G H I J K L M N O P Q R S T U V W X Y Z # 

3 Suns And 1star Tabs (ver.1)

Down
Rating:
0/5 (0 votes)

Hard to play? Try these video lessons and learn fast.
                this is the way i learned it and its the exact same versoin just easier and more comforble.

intro, quite but its there


e|---------------------------------------|
B|---------------------------x47(aprox)--|
G|---------------------------------------|
D|---------------------------------------|
A|--------0------------------------------|
D|0-0-0-0-0------------------------------|

then in the break off:phil will yell (ha!!)

e|-----------------------------------------------------------|
B|-----------------------------------------------------------|
G|-----------------------------------------------------------|
D|-----------------------------------3-----------------------|
A|----5-8-5--6-0-5---3/5-3/5----5-3h5-5---5--6/5-------------|
D|-0-0-0-0-0-6-0-5-0-3/5-3/5-0-0-0-----0-0-0-6/5-------------|

the old dog! has to lern a new trick...

e|---------------------------------------|
B|-------------------------------x23-----|
G|---------------------------------------| louder this time
D|---------------------------------------|
A|--------0------------------------------|
D|0-0-0-0-0------------------------------|

right after that play this:
e|-----------------------------------------|
B|-----------------------------------------|
G|-----------------------------------------|
D|-----------------------------------------|
A|-------------------3--3-3-3-2--2-2-2-----|this string slightley louder
D|0--0-0-0-5--5-5-5--5--5-5-5-5--5-5-5-----|


  second time :
e|-----------------------------------------|
B|-----------------------------------------|
G|-----------------------------------------|
D|-----------------------------------------|
A|-------------------2--2-2-2-2--1-1-1-----|this string slightly louder
D|0--0-0-0-5--5-5-5--5--5-5-5-5--5-5-5-----|

play both twice then back to the break off part, then repaet twice, u can play all the 
up to 2:45 on this, hope to have the rest up shortly
            
Hard to play? Try these video lessons and learn fast. | Correct




comments powered by Disqus
↑ Back to top | Tablatures and chords are parodies/interpretations of the original songs. You may use it for private study, scholarship, research or language learning purposes only