» » »

Rockin Down The Highway Tabs (ver.3)

Artists:  A B C D E F G H I J K L M N O P Q R S T U V W X Y Z # 

Rockin Down The Highway Tabs (ver.3)

Doobie Brothers
Rating:
0/5 (0 votes)

Tabs too difficult? Try these video lessons and learn fast.
                DOOBIE BROTHERS - ROCKIN' DOWN THE HIGHWAY
(Johnston)


Tuning (low to high): EADGBE

Intro:

      A      G   D    A     A
E|------------------------------|
B|---10-10---8-8-7-7-10---7-5---|
G|----9--9---7-7-7-7--9---7-6---|
D|---11-11---9-9-7-7-11---7-7---|
A|------------------------------|
E|------------------------------|

E|--------------------------------|
B|---10-10---8-8-7-7-10-----------|
G|----9--9---7-7-7-7--9-----------|
D|---11-11---9-9-7-7-11---7-4-----|
A|----------------------------7-4-|
E|--------------------------------|

Verse:

     A boogie
E|-----------------------|
B|-----------------------|
G|-----------------------| improvise this
D|-----------------------| if you want
A|---7---9-7---7-7-9-7---|
E|---5---5-5---5-5-5-5---|

Got those highway blues...

     D                            A boogie
E|------------------------------------------|
B|------------------------------------------|
G|---7--------------------------------------|
D|---7--------------------------------------|
A|---5----------------------------7-7-9-7---|
E|--------------------------------5-5-5-5---|

     Flyin' down the road with my foot on the floor

A boogie

All the way in town they can hear me comin'

D                               A boogie

Ford's about to drop, she won't do no more

     F5            Bb 
E|-------------------------------------|
B|-------------------------------------|
G|---10-10---10-10-11--10-10---10-10---|
D|---10-10---10-10-10--10-10---10-10---|
A|----8--8----8--8-12---8--8----8--8---|
E|-------------------------------------|

           And I smell my motor burnin'
           Underneath the hood is smoke

     E5     
E|---------------------------|
B|---------------------------|
G|---9-9---------------9-9---|
D|---9-9---------------9-9---|
A|---7-7---------------7-7---|
E|---------------------------|

     Can't stop, and i can't stop

     G5
E|--------|
B|--------|
G|---12---| play this chord
D|---12---| a few times
A|---10---|
E|--------|

     Got to keep on movin' or i'll lose my mind...

Chorus (play the same as intro):

   Oooooohhhh, rockin' down the highway (x4)

After the chorus:

E|-------------|----------------------|
B|-------------|----------------------|
G|-------------|----------------------|
D|---7-4-------|---2-------2-4-(x4)---|
A|-------7-4---|---0---3-4------------|
E|-------------|----------------------|

Then its another verse, another chorus, and we hit the solo:

    F#m  E   Bm
E|---2---0-------|
B|---2---0---3---|
G|---2---1---4---| play this pattern for the beginning 
D|---4---2---4---| and the rest is in the verse pattern
A|---4---2---2---|
E|---2---0-------|

---

I don't tab solos, but play around in F#m (I think) and you'll figure it out...
other than that that's the whole rhythm guitar for the song! enjoy!
            
Tabs too difficult? Try these video lessons and learn fast.




comments powered by Disqus
↑ Back to top | Tablatures and chords are parodies/interpretations of the original songs. You may use it for private study, scholarship, research or language learning purposes only