» » »

Listen To The Music Tabs (ver.1)

Artists:  A B C D E F G H I J K L M N O P Q R S T U V W X Y Z # 

Listen To The Music Tabs (ver.1)

Doobie Brothers
Rating:
4/5 (6 votes)

Hard to play? Try these video lessons and learn fast.
                -------------------------------------------------------------------------------
                      Listen to the Music – Doobie Brothers
-------------------------------------------------------------------------------

Tuning: Standard

This song is sweet.

The strumming is approximated of course. So just listen and the strumming pattern shouldn’t be too hard. 

Here is the intro and the main riff. Make a bar with your index finger and just hammer on the A.
 
Intro:
       E                                               A                 E
e|------------------------------------------------------------------------------|
B|-----x-9-x-9--9-9-9-9-x-x-------x-9-x-9--9-9-9-9--9h10-10--10-10-10p9-9-9-9-9-|
G|-----x-9-x-9--9-9-9-9-x-x-------x-9-x-9--9-9-9-9--9----9---9--9--9----9-9-9-9-|
D|-----x-9-x-9--9-9-9-9-x-x-------x-9-x-9--9-9-9-9--9h11-11--11-11-11p9-9-9-9-9-|
A|-9h11----------------------9h11-----------------------------------------------|
E|------------------------------------------------------------------------------|


Verse:

       E                                               A                 E
e|--------------------------------------------------------------------------------|
B|-----x-9-x-9--9-9-9-9-x-x-------x-9-x-9--9-9-9-9--9h10-10-10-10-10-10p9-9-9-9-9-|
G|-----x-9-x-9--9-9-9-9-x-x-------x-9-x-9--9-9-9-9--9----9--9--9--9--9----9-9-9-9-|
D|-----x-9-x-9--9-9-9-9-x-x-------x-9-x-9--9-9-9-9--9h11-11-11-11-11-11p9-9-9-9-9-|
A|-9h11----------------------9h11-------------------------------------------------|
E|--------------------------------------------------------------------------------|

       E                     C#m               B                A
e|---------------------------9--x-9--9-9-9-9---7-x-7-7-7-7-7--5-x-5-5-5-5-5--|
B|-----x-9-x-9--9-9-9-9-x-x--9--x-9--9-9-9-9---7-x-7-7-7-7-7--5-x-5-5-5-5-5--|
G|-----x-9-x-9--9-9-9-9-x-x--9--x-9--9-9-9-9---8-x-8-8-8-8-8--6-x-6-6-6-6-6--|
D|-----x-9-x-9--9-9-9-9-x-x—-11-x-11-11111111--9-x-9-9-9-9-9--7-x-7-7-7-7-7--|
A|-9h11----------------------11-x-11-11111111--9-x-9-9-9-9-9--7-x-7-7-7-7-7--|
E|---------------------------9--x-9--9-9-9-9---7-x-7-7-7-7-7--5-x-5-5-5-5-5--|

   A Asus      A
E|-5-5-5-5-5-5-5-----------------------------|
B|-5-5-5-5-5-5-5-----------------------------|
G|-6h7-7-7-7-7p6—---back to intro------------|
D|-7-5*5-5-5-5-5-----------------------------|
A|-7-7-7-7-7-7-7-----------------------------|
E|-5-5-5-5-5-7-5-----------------------------|
I mute this note


Chorus:
C#m A
C#m A
C#m A   
D   A


That’s all except for this weird bridge:

E                     D
Like a lazy flowing river
A                         E
Surrounding castles in the sky
E                       D
And the crowd is growing bigger
A                          
Listening for the happy sounds
A                                     
And I got to let them fly


That's it
Keep on rockin!
            
Hard to play? Try these video lessons and learn fast. | Correct




comments powered by Disqus
↑ Back to top | Tablatures and chords are parodies/interpretations of the original songs. You may use it for private study, scholarship, research or language learning purposes only