>
 >
Rockin' Down The Highway

Rockin' Down The Highway Guitar Tabs

Doobie Brothers - Rockin' Down The Highway chords, tabs, tablatures, lyrics

Guitar lessons | Add/correct | Request | Top 50 tabs Artists:  A B C D E F G H I J K L M N O P Q R S T U V W X Y Z 0-9

Rockin' Down The Highway Guitar Tabs – Doobie Brothers

CD, Sheet music, Poster

Do you like Rockin' Down The Highway? Share with your friends now
Bass TabsChordsTabsTabs v2Tabs v3
ROCKIN' DOWN THE HIGHWAY
Doobie Brothers


Words and Music by Tom Johnston

  # :CHORDS USED: #

   A/E
   x x x 9 10 9
	
   Bm7
   7 9 7 7 10 x
	
   C#m7
   9 11 9 9 9 x
	
   D/F#
   x x x 11 10 10

   Dadd9/E
   0 7 7 7 7 x
	
   E
   0 7 9 9 9 x
	
   F
   1 3 3 2 x x
	
   Fsus4
   1 3 3 3 x x

   F#m7
   x 9 11 9 10 9
	
   G
   3 5 5 4 3 3
	
   G/D
   x x x 7 8 7

Gtr I (E A D G B E) - 'Guitar 1'
Gtr II (E A D G B E) - 'Guitar 2'
Gtr III (E A D G B E) - 'Lead'
Gtr IV (E A D G B E) - 'Lead 2'


 Intro
               A/C                 G/B     D/A      A          D/F# A/E
 4/4
  Gtr I
|-----------||--9---9------|-------------------|----5------|----------------|
|-----------||-10--10------|-------8-(8)-8-7---|-7--5------|---3----2-------|
|-----------||--9---9------|-------7-(7)-7-7---|-7--6------|---2----2-------|
|-------x---||-10--11------|-x-x-x-9-(9)-9-7-x-|-7--7------|-0-4--4-2--/11--|
|-------x-0-||-------------|-x-x-x-----------x-|-----------|-0--------------|
|-----------||-------------|-------------------|-----------|----------------|


  A/C#                G/B     D/A      A                     A5
|--9---9------|-------------------|----5-------|----------------|
|-10--10------|-------8-(8)-8-7---|-7--5-------|----------------|
|--9---9------|-------7-(7)-7-7---|-7--6-------|-2-----------2--|
|-11--11------|-x-x-x-9-(9)-9-7-x-|-7--7-------|---4--2------2--|
|-------------|-x-x-x-----------x-|---------0--|---------4-x-0--|
|-------------|-------------------|------------|-----------x----|


   Verse
       A/E                                         D/F#
    Gtr II
       |            |         |            |       |     |
       /            /         /            /       /     /

    Gtr I
||---------------------|----------------------|--------------|
||o--------------------|----------------------|-3----3-3-3---|
||--2----------------2-|-(2)------------------|-2----2-2-2-2-|
||--2--4b4.5rp0-2-4--2-|-(2)--4b4.5rp0-2-4----|-4----4-4-4-2-|
||o-0---------0-0-0--0-|-(0)--0------0-0-0--0-|------------0-|
||---------------------|----------------------|--------------|


        A/E
        |       |       |       |          |       |
        /       /       /       /          /       /

|------------------|---------------|------------------|
|------------------|---------------|------------------|
|-(2)--------------|-2-----------2-|-(2)--------------|
|-(2)-2-4---2-4----|-2--4---2-4--2-|-(2)-2-4---2-4----|
|-(0)-0-0-0-0----0-|-0--0-0-0----0-|-(0)---0-0-0----0-|
|------------------|---------------|------------------|


     D/F#              A/E
     |     |           |      |
     /     /           /      /

|--------------|-----------------|
|-3----3-3-x---|-------3------0--|
|-2----2-2-x-2-|-(2)---2---------|
|-4----4-4-x-2-|-(2)---4--2-4----|
|------------0-|-(0)-0-0--0------|
|--------------|-----------------|


 Pre-Chorus
  F                FsuF4    Fsus4 F       Fsus4     F    Fsus4
  |  |         |  ||   |    |     |  |    |      |   |   |
  /  /         /  //   /    /     /  /    /      /   /   /

|-1--1------|-(1)---1-(1)-1-----|-5--5------|--5--5-(5)-------|
|-1--1------|-(1)---1-(1)-1-3-x-|-6--6------|--4--4-(4)--x----|
|-2--2------|-(2)---2-(2)-2-3-x-|-5--5------|--5--5-(5)--x----|
|-3--3------|-(3)---3-(3)-3-3-x-|-----------|------------x----|
|-----------|-------------------|-----------|-----------------|
|-----------|-------------------|-----------|--------------0--|


  E                                 G
  |  |             |  |             |  |  |   |    |  |  |  |
  /  /             /  /             /  /  /   /    /  /  /  /

|-4--4\----------|-4--4\----------|-7--7--7-7-7--|-8--8--7-------||
|-5--5\--x---x---|-5--5\--x---x---|-8--8--8-8-8--|-8--8--8-------||
|-4--4\--x---x---|-4--4\--x---x---|-7--7--7-7-7--|-7--7--7--x----||
|--------x---x---|--------x---x---|--------------|----------x----||
|----------------|----------------|--------------|----------x----||
|----------0---0-|----------0---0-|--------------|------------0--||


 Chorus
  $
      A/E             G/D              A/E
  Gtr II
       |    |       | |  |    |        |    |       |       |
       /    /       / /  /    x        /    /       /       /

  Gtr I
|--9---9------|-------------------|----5------|-----------------|
|-10--10------|-------8-(8)-8-7---|-7--5------|---3----2--------|
|--9---9------|-------7-(7)-7-7---|-7--6------|---2----2--------|
|-10--11------|-x-x-x-9-(9)-9-7-x-|-7--7------|-0-4--4-2--/11---|
|-------------|-x-x-x-----------x-|-----------|-0---------------|
|-------------|-------------------|-----------|-----------------|


      A/E             G/D              A/E
       |    |       | |  |    |        |    |       |       |
       /    /       / /  /    x        /    /       /       /

|--9---9------|-------------------|----5------|-----------------|
|-10--10------|-------8-(8)-8-7---|-7--5------|---3----2--------|
|--9---9------|-------7-(7)-7-7---|-7--6------|---2----2--------|
|-10--11------|-x-x-x-9-(9)-9-7-x-|-7--7------|-0-4--4-2--/11---|
|-------------|-x-x-x-----------x-|-----------|-0---------------|
|-------------|-------------------|-----------|-----------------|


      A/E             G/D              A/E
       |    |       | |  |    |        |    |       |       |
       /    /       / /  /    x        /    /       /       /

|--9---9------|-------------------|----5------|-----------------|
|-10--10------|-------8-(8)-8-7---|-7--5------|---3----2--------|
|--9---9------|-------7-(7)-7-7---|-7--6------|---2----2--------|
|-10--11------|-x-x-x-9-(9)-9-7-x-|-7--7------|-0-4--4-2--/11---|
|-------------|-x-x-x-----------x-|-----------|-0---------------|
|-------------|-------------------|-----------|-----------------|


                                    1.
                           To Coda
      A/E             G/D               A/E
       |    |       | |  |    |         |    |        |     |
       /    /       / /  /    x         /    /        /     /

|--9---9------|-------------------||----5-------|----------------|
|-10--10------|-------8-(8)-8-7---||-7--5-------|----------------|
|--9---9------|-------7-(7)-7-7---||-7--6-------|-2-----------2--|
|-11--11------|-x-x-x-9-(9)-9-7-x-||-7--7-------|---4--2------2--|
|-------------|-x-x-x-----------x-||---------0--|---------4-x-0--|
|-------------|-------------------||------------|-----------x----|


 Interlude 1
       N.C.      A5      N.C.        A5
  Gtrs I, II
|------------------|-------------------|
|------------------|-------------------|
|-(2)------2-----2-|-(2)-------2-----2-|
|-(2)------2h4-x-2-|-(2)-------2h4-x-2-|
|-(0)--3h4-----x-0-|-(0)-0-3h4-----x-0-|
|------------------|-------------------|


       N.C.      A5      N.C.
|------------------|---------------------||
|------------------|--------------------o||
|-(2)------2-----2-|-(2)-------2---------||
|-(2)------2h4-x-2-|-(2)-------2h4-x-----||
|-(0)--3h4-----x-0-|-(0)-0-3h4-----x----o||
|------------------|-----------------0---||


  2.
     A/E
  Gtr I
     |    |          |     |
     /    /          /     /

  Gtr II
|----5--------|----------------|
|-7--5--------|------5--5--x---|
|-7--6-----/6-|-(6)--6--6--x---|
|-7--7-----/7-|-(7)--7--7--x---|
|-------------|----------------|
|-------------|--------------9-|


 Interlude 2
  F#mC#m7Bm7          F#mC#m7   Bm7
  ||||||||  ||||| |   ||||||||  || |||    | |
  //x///x/  ///x/ /   //x////x  // ///    / x

  Gtr III
|---------|---------|---------|-------12s14--|
|---------|---------|---------|-------12s14--|
|---------|---------|---------|--------------|
|---------|---------|---------|--------------|
|---------|---------|---------|--------------|
|---------|---------|---------|--------------|


  F#m7     C#m7      Bm7
    |  | | | |  |  | |   | |    | |  |       |
    /  / x / /  /  x /   / /    / x  /       /

                                  ~~~~~~
|-(14)s=12-------------|--------------------------|
|-(14)s=12--10s12s10---|--------------------10-12-|
|------------9s11s=9---|----------9-(9)-/11-------|
|----------------------|---7-9s11-----------------|
|--------------------7s|=9------------------------|
|----------------------|--------------------------|


        Dadd9/E
          |     |      |    |              |    |        |   |
          /     /      /    /              /    /        /   /

                                    ~~~~~~~~~~           ~~
|--------------------------------|-------------------------------|
|-12b14-(12)------------------10-|-12b14-(12)--12p10----10-------|
|------------------------9-11----|-------------------11-----11\--|
|------------\7-9-7-9s11---------|-------------------------------|
|--------------------------------|-------------------------------|
|--------------------------------|-------------------------------|


 Interlude 3
  Gtr I
|----------------|-------------------|------------------|---------------------|
|----------------|-------------------|------------------|---------------------|
|-2------2-----2-|-(2)-------2-----2-|-(2)------2-----2-|-(2)-------2---------|
|-2------2h4-x-2-|-(2)-------2h4-x-2-|-(2)------2h4-x-2-|-(2)-------2h==4-x---|
|-0--3h4-----x-0-|-(0)-0-3h4-----x-0-|-(0)--3h4-----x-0-|-(0)-0-3h4-------x---|
|----------------|-------------------|------------------|-------------------0-|
|
| Gtr III
|----------------|-------------------|------------------|---------------------|
|----------------|-------------------|------------------|---------------------|
|----------------|-------------------|------------------|---------2-4p2---2---|
|----------------|-------------------|------------------|-----2-4-------4-----|
|----------------|-------------------|------------------|---------------------|
|----------------|-------------------|------------------|---------------------|


 Guitar Solo
         A/E
  Gtr II
         |            |                 |                  |
         /            /                 /                  /

  Gtr I
|-------------------------|------------------------------------|
|-------------------------|------------------------------------|
|-----2-----------------2-|-(2)--------------------------------|
|-----2--4b4.5rp0-2-4---2-|-(2)---------4b4.5rp======0-2-4-----|
|-----0---------0-0-0---0-|-(0)---------0------------0-0-0---0-|
|-------------------------|------------------------------------|
|
| Gtr III
| ~~~~~~
|-------------------------|------------------------------------|
|-------------------------|------------------------------------|
|-4b6-4---------------2---|--2--4-4b6==(4)r====(4)p2---2---4-2-|
|-----------------------4-|--------------------------4---------|
|-------------------------|------------------------------------|
|-------------------------|------------------------------------|


               D/F#                   A/E
                |         |           |         |
                /         /           /         /

|-----------------------------|----------------------|
|------3------------3---3-3---|----------------------|
|------2------------2---2-2-2-|-(2)------------------|
|------4------------4---4-4-2-|-(2)-2-4----2-4-------|
|---------------------------0-|-(0)-0-0-0--0------0--|
|-----------------------------|----------------------|
|
|                         ~~~~~~~~~~
|-----------------------------|----------------------|
|-5b7-(5)--5b7-(5)--5p2-------|----------------------|
|-----------------------4-2---|-(2)---------------9--|
|-----------------------------|-------4------7S11----|
|-----------------------------|-----------/9---------|
|-----------------------------|----------------------|


         |            |                      |                    |
         /            /                      /                    /

|----------------------------------|-------------------------------------------|
|----------------------------------|-------------------------------------------|
|---2---------------------------2--|--(2)--------------------------------------|
|---2----4-----2---4------------2--|--(2)-2--4--------2--------4---------------|
|---0----0-0---0----------------0--|--(0)----0-----0--0---------------------0--|
|----------------------------------|-------------------------------------------|
|
|   ~~~    ~~~~~~~                                                   ~~~~~~~~~~~
|----------------------------------|--------------------------------12b14-(12)-|
|----------------------------------|-------------------------------------------|
|---9---11-9--(9)--------------11--|-------------------------------------------|
|----------------------------------|-------------------------------------------|
|----------------------------------|-------------------------------------------|
|----------------------------------|-------------------------------------------|
|
| Gtr IV
|                        ~~~~~~~~~~~~~~~~~
|----------------------------------|--------------------------------12b14-(12)-|
|-----------------10-12-12b14-(12)-|-(12)---12p10----10h12p10----10------------|
|-----9------/11-------------------|--------------11----------11---------------|
|-/11------------------------------|-------------------------------------------|
|----------------------------------|-------------------------------------------|
|----------------------------------|-------------------------------------------|


          D/F#                                              A/E
          |                      |                           |        |
          /                      /                           /        /

|------------------------------------------------|--------------------------|
|---3-------------------3-----3--x---------------|-----------3--------0-----|
|---2-------------------2-----2--x------------2--|-(2)-------2--------------|
|---4-------------------4-----4--x------------2--|-(2)-------4--2-4---------|
|---------------------------------------------0--|-(0)----0--0--0-----------|
|------------------------------------------------|--------------------------|
|
|~~~~~~                                                      ~~
|-(12)----------------(12)---12------------------|--------------------------|
|-------------------------------------12b14-(12)-|-12p10----10--------------|
|------------------------------------------------|-------11-----0----11\----|
|------------------------------------------------|--------------------------|
|------------------------------------------------|--------------------------|
|------------------------------------------------|--------------------------|
|
|                                                   ~~~
|------12----------------------------------------|--------------------------|
|----------12b14-(12)--12p10----12p10------------|-10---------------(10)\---|
|----------------------------11--------------11--|--------------------------|
|------------------------------------------------|--------------------------|
|------------------------------------------------|--------------------------|
|------------------------------------------------|--------------------------|


  F                                                         Fsus4            F      Fsus4
    |     |                                        |      |  |                 |      |
    /     /                                        /      /  /                 /      /

|---1-----1------------------------------|--------(1)------------------1------(1)-1--------|
|---1-----1------------------------------|--------(1)------------------1------(1)-1---3--x-|
|---2-----2------------------------------|--------(2)------------------2------(2)-2---3--x-|
|---3-----3------------------------------|--------(3)------------------3------(3)-3---3--x-|
|----------------------------------------|-------------------------------------------------|
|----------------------------------------|-------------------------------------------------|
|
|            ~~~~~~~~~~~~~~~
|--------13------------------------------|-------------------------------------------------|
|-----13----16b18-(16)-(16)--16-------13-|--------16p=13-------16b18-(16)----(16)----16-13-|
|-/14------------------------------------|---------------16-15-----------------------------|
|----------------------------------------|-------------------------------------------------|
|----------------------------------------|-------------------------------------------------|
|----------------------------------------|-------------------------------------------------|
|
|            ~~~~~~~~~~~~~~~
|--------13------------------------------|-------------------------------------------------|
|-----13----16b18-(16)-(16)--13h16p13----|-15b16-(15)----15-13--------------------------13-|
|-/14---------------------------------15-|----------------------------15--13h=14----/14----|
|----------------------------------------|-------------------------------------------------|
|----------------------------------------|-------------------------------------------------|
|----------------------------------------|-------------------------------------------------|


        F                             Fsus4                                   F     Fsus4
          |           |                |                         |              |     |
          /           /                /                         /              /     /

|---------5-----------5---------------------------|-----------5------------5---(5)-------------|
|---------6-----------6---------------------------|-----------4------------4---(4)----x--------|
|---------5-----------5---------------------------|-----------5------------5---(5)----x--------|
|-------------------------------------------------|-----------------------------------x--------|
|-------------------------------------------------|--------------------------------------------|
|-------------------------------------------------|---------------------------------------0----|
|
|                                                                   ~~~~~~~~~~~~~~~
|-16b18-(16)--16b18-(16)--16b18-(16)--13h16p13----|-13h16p13----13-----------------------------|
|----------------------------------------------16-|----------16----16b18-(16)-(16)--(16)\------|
|-------------------------------------------------|--------------------------------------------|
|-------------------------------------------------|--------------------------------------------|
|-------------------------------------------------|--------------------------------------------|
|-------------------------------------------------|--------------------------------------------|
|
|                                                                   ~~~~~~~~~~~~~~~
|--------13---16b18-(16)--16b18-(16)--13h16p13----|-13h16p13----13-----------------------------|
|----------------------------------------------16-|----------16----16b18-(16)-(16)--(16)\------|
|-------------------------------------------------|--------------------------------------------|
|-------------------------------------------------|--------------------------------------------|
|-------------------------------------------------|--------------------------------------------|
|-------------------------------------------------|--------------------------------------------|


  E
    |     |                 |    |
    /     /                 /    /

|---4-----4\-------------|--4----4\-----------------|
|---5-----5\-----x---x---|--5----5\-----x------x----|
|---4-----4\-----x---x---|--4----4\-----x------x----|
|----------------x---x---|--------------x------x----|
|------------------------|--------------------------|
|------------------0---0-|------------------0-----0-|
|
|--------12-----10---9---|--7s=9-9-----10-----12----|
|-----12-----------------|--------------------------|
|-/13--------11----9---7-|-(7)s9----11----/13----13-|
|------------------------|--------------------------|
|------------------------|--------------------------|
|------------------------|--------------------------|
|
|--------12-----10---9---|--7s=9-9-----10-----12----|
|-----12-----------------|--------------------------|
|-/13--------11----9---7-|-(7)s9----11----/13----13-|
|------------------------|--------------------------|
|------------------------|--------------------------|
|------------------------|--------------------------|


                                                                    D.S. al Coda
     G
      |     |              |     |              |           |           |   |
      /     /              /     /              /           /           /   /

|-----7-----7--------------7--7--7----|---------8-----------8-----------7----------||
|-----8-----8--------------8--8--8----|---------8-----------8-----------8----------||
|-----7-----7--------------7--7--7----|---------7-----------7-----------7---x------||
|-------------------------------------|-------------------------------------x------||
|-------------------------------------|-------------------------------------x------||
|-------------------------------------|---------------------------------------0----||
|
|              ~~~~~~~~~~~~~~~                                   ~~~~~~~~~~
|----------15-------------------------|-18b20-(18)--18b20-(18)--18b19-(18)---------||
|-------15----18b20-(18)-(18)---18-15-|--------------------------------------------||
|-13s16-------------------------------|--------------------------------------------||
|-------------------------------------|--------------------------------------------||
|-------------------------------------|--------------------------------------------||
|-------------------------------------|--------------------------------------------||
|
|              ~~~~~~~~~~~~~~~                                   ~~~~~~~~~~
|----------15-------------------------|-18b20-(18)--18b20-(18)--18b19-(18)---------||
|-------15----18b20-(18)-(18)---18-15-|--------------------------------------------||
|-13s16-------------------------------|--------------------------------------------||
|-------------------------------------|--------------------------------------------||
|-------------------------------------|--------------------------------------------||
|-------------------------------------|--------------------------------------------||


 Outro
  &
  D/AA         N.C.        A5
  Gtrs I, III
|----5-------|---------------|----------*|
|-7--5-------|---------------|----------*|
|-7--6-------|-2-----------2-|-2--------*|
|-7--7-------|---4--2----x-2-|-2--------*|
|---------0--|---------4-x-0-|-0--------*|
|------------|---------------|----------*|



Tablature Legend
----------------
 h   - hammer-on
 p   - pull-off
 b   - bend
 pb  - pre-bend
 r   - bend release (if no number after the r, then release immediately)
 /\  - slide into or out of (from/to "nowhere")
 s   - legato slide
 S   - shift slide
 - natural harmonic
[n]  - artificial harmonic
n(n) - tapped harmonic
 ~   - vibrato
 tr  - trill
 T   - tap
 TP  - trem. picking
 PM  - palm muting
\n/  - tremolo bar dip; n = amount to dip
 \n  - tremolo bar down
 n/  - tremolo bar up
/n\  - tremolo bar inverted dip
 =   - hold bend; also acts as connecting device for hammers/pulls
 <> - volume swell (louder/softer)
 x   - on rhythm slash represents muted slash
 o   - on rhythm slash represents single note slash

Misc Legend
-----------
 |  - bar
||  - double bar
||o - repeat start
o|| - repeat end
*|  - double bar (ending)
 :  - bar (freetime)
 $  - Segno
 &  - Coda
Tempo markers -  = BPM(8/16=s8/s16), where s8 = swing 8ths, s16 = swing 16ths





Comments


Popular Doobie Brothers tabs & chords
Down In The Track Bass Tabs
Long Train Runnin’ Chords
Takin' It To The Streets Chords
What A Fool Believes 3 Chords
Wheels Of Fortune Chords
Black Water Tabs
Long Train Runnin’ 1 Tabs
China Grove Ukulele
Dependin On You Ukulele
Rockin Down The Highway Ukulele


Song lyrics



↑ Back to top | Tablatures and chords are parodies/interpretations of the original songs. You may use it for private study, scholarship, research or language learning purposes only
© 2014 AZChords.com Contact us | Privacy policy | DMCA | Add/correct tabs | Request tabs | Top 50 tabs