» » »

Doobie Brothers, Long Train Runnin’ Bass tabs (ver.1)

Artists:  A B C D E F G H I J K L M N O P Q R S T U V W X Y Z # 

Long Train Runnin’ Bass tabs (ver.1)

Doobie Brothers Tabs
 Rating:
4/5 (4 votes)
Long Train Runnin’ lessons Tabs too difficult? Try these video lessons and learn fast
1
                --------------------------------------------------------------
	Long Train Running - The Doobie Brothers	     
--------------------------------------------------------------


Tuning: standard

G|-------------------------------------------------------|         
D|-----8-------------------------------------------------|               
A|--10----10-8--------8----------------------------------|} INTRO X 1
E|--------------8-h10---10--8--6-3-----------------------|

G|-------------------------------------------------------|
D|---------3--5------------------------------------------|
A|----3-h5---5-------------------------------------------|} RIFF#1 X 3
E|--3----------------------------------------------------|

G|-------------------------------------------------------|
D|---------3-3-h4-h5-------------------------------------|
A|----3-h5-----------------------------------------------|} RIFF#2 X 1
E|--3----------------------------------------------------|

  THEN:
  RIFF#1 X 4

G|-------------------------------------------------------|
D|-------------------------------------------------------|
A|--3----33----1-33---33----5----------------------------|} RIFF#3 X 1
E|------3-----3-3----3-----------------------------------|
   "without love where would you be now"
 
  THEN:
  RIFF#1 X 1
  RIFF#2 X 1

  THEN:

G|-------------------------------------------------------|
D|-------------------------------------------------------|
A|--6-----66--6--5----55---------------------------------|} RIFF#4 X 1
E|------6------------5----5--3---------------------------|
   "without.....love....."

  THEN:
  RIFF#1 X 2
  NEXT VERSE:"though i saw miss lucy down along the track"
  RIFF#1 X 3
  RIFF#2 X 1

  RIFF#3 x 1
  
  RIFF#1 X 1
  RIFF#2 X 1 

  RIFF#4 X 1

  RIFF#1 X 2

  THEN:

G|-------------------------------------------------------
D|------------------------5--3---------------------------|  
A ------------------------------5------------------------ } PUSH#1 X 1 
E|--3---1-3----3---1-3-----------------------------------|
  "with the feeling always central"
  THEN:

  RIFF#3 X 1 }
  RIFF#1 X 1 } }
  RIFF#2 X 1 } } }
  RIFF#4 X 1 } } } (AFTER PUSH SECTION)
  RIFF#1 X 1 } }
  RIFF#2 X 1 }

  HARMONICA SOLO:
  RIFF#1 X 3
  RIFF#2 X 1

  RIFF#3 x 1
  
  RIFF#1 X 1
  RIFF#2 X 1 

  RIFF#4 X 1

  RIFF#1 X 2
  THEN:
  PUSH#1 X 1
  AFTER PUSH SECTION X 1

  THEN:
G|-------------------------------------------------------|
D|-------------------------------------------------------|
A|-------------------------------------------------------|} PUSH#2 X 3
E|--3---1-h3--1-h3--1-h3--1----3-------------------------|
  "when the pistons keep on turning"

  THEN:
  AFTER PUSH SECTION X 1

  STOP.......
G|-------------------------------------------------------|
D|-------------------------------------------------------|
A|--6----5----3------------------------------------------|
E|-------------------------------------------------------|
  

  THEN: "ooooooOhhh"
  INTRO  X 1
  RIFF#1 X 3
  RIFF#2 X 1
  RIFF#1 X 3
  RIFF#2 X 1

  END



| /  slide up
| \  slide down
| h  hammer-on
| p  pull-off
| ~  vibrato
| +  harmonic
| x  Mute note
===============================================================================
            
Submit corrections

comments powered by Disqus
↑ Back to top | Doobie Brothers Bass for Long Train Runnin’. Lyrics for acoustic guitar and electric guitar. 1 Tablatures and chords are parodies/interpretations of the original songs. You may use it for private study, scholarship, research or language learning purposes only