» » »

Deteriorate Bass tabs (ver.1)

Artists:  A B C D E F G H I J K L M N O P Q R S T U V W X Y Z # 

Deteriorate Bass tabs (ver.1)

Demon Hunter
Rating:
5/5 (4 votes)

Tabs too difficult? Try these video lessons and learn fast.
                Band: Demon Hunter
Tuning: Drop D (gdad)

VERSE:

G|---------|---------|---------|---------|\
D|---------|---------|---------|---------| \
A|-4-------|---------|---------|---------|  \
D|---------|-6-------|-2-------|-2-------|   \
                                               x2
G|---------|---------|---------|---------|   /
D|---------|---------|---------|---------|  /
A|-4-------|---------|---------|---------| /
D|---------|-6-------|-2-------|-1-------|/

PRE-CHORUS:

G|---------|---------|---------|---------|
D|---------|---------|---------|---------|
A|---------|---------|---------|---------|  x2
D|-7-------|-6-------|-9-------|-9-------|

CHORUS:

G|-----------------|-----------------|-----------------|-----------------|
D|-----------------|-----------------|-----------------|-----------------|
A|-0-0-0-0-0-0-0-0-|-4-4-4-4-4-4-4-4-|-----------------|-----------------|x2
D|-----------------|-----------------|-4-4-4-4-4-4-4-4-|-4-4-4-4-4-4-4-4-|

PRE-VERSE:

G|---------|---------|
D|---------|---------|
A|---------|---------|
D|-7-------|-6-------|

VERSE:

G|--------|--------|---------|---------|
D|--------|--------|---------|---------|
A|--------|--------|---------|---------|
D|--------|--------|-2-------|-2-------|

G|---------|---------|---------|---------|
D|---------|---------|---------|---------|
A|-4-------|---------|---------|---------|
D|---------|-6-------|-2-------|-1-------|

PRE-CHORUS:

G|---------|---------|---------|---------|
D|---------|---------|---------|---------|
A|---------|---------|---------|---------|  x2 
D|-7-------|-6-------|-9-------|-9-------|

CHORUS:

G|-----------------|-----------------|-----------------|-----------------|
D|-----------------|-----------------|-----------------|-----------------|
A|-0-0-0-0-0-0-0-0-|-4-4-4-4-4-4-4-4-|-----------------|-----------------|x2
D|-----------------|-----------------|-4-4-4-4-4-4-4-4-|-4-4-4-4-4-4-4-4-|

BRIDGE:

G|-----------------|-----------------|-----------------|-----------------|
D|-----------------|-----------------|-----------------|-----------------|
A|-----------------|-----------------|-0-0-0-0-0-0-0-0-|-4-4-4-4-4-4-4-4-|x3
D|-0-0-0-0-0-0-0-0-|-2-2-2-2-2-2-2-2-|-----------------|-----------------|

G|-----------------|-----------------|
D|-----------------|-----------------|
A|-----------------|-----------------|
D|-0-0-0-0-0-0-0-0-|-2-2-2-2-2-2-2-2-|

INTERLUDE:

(But first there's a part with only guitar)

G|----------|----------|-----------------|-----------------|
D|----------|----------|-----------------|-----------------|
A|-4-4------|----------|-----------------|-----------------|  x2
D|----------|-6-6------|-2-2-2-2-2-2-2-2-|-2-2-2-2-2-2-2-2-|

CHORUS:

G|-----------------|-----------------|-----------------|-----------------|
D|-----------------|-----------------|-----------------|-----------------|
A|-0-0-0-0-0-0-0-0-|-4-4-4-4-4-4-4-4-|-----------------|-----------------|x3
D|-----------------|-----------------|-4-4-4-4-4-4-4-4-|-4-4-4-4-4-4-4-4-|

G|-----------------|-----------------|--------------------------------|
D|-----------------|-----------------|--------------------------------|
A|-0-0-0-0-0-0-0-0-|-4-4-4-4-4-4-4-4-|--------------------------------|
D|-----------------|-----------------|-4------6------2----------------|
            
Tabs too difficult? Try these video lessons and learn fast.




comments powered by Disqus
↑ Back to top | Tablatures and chords are parodies/interpretations of the original songs. You may use it for private study, scholarship, research or language learning purposes only