» » »

Deteriorate Bass tabs (ver.2)

Artists:  A B C D E F G H I J K L M N O P Q R S T U V W X Y Z # 

Deteriorate Bass tabs (ver.2)

Demon Hunter
Rating:
5/5 (2 votes)

Hard to play? Try these video lessons and learn fast.
                Tuning: Standard

Guitar Intro


Verse (0:46)

|------------------------------|
|------------------------------|
|4~--2~----------4~--2~------1~|
|--------0~--0~----------0~----| (x2)


Pre-Chorus (1:30)

|-----------------|
|-----------------|
|-----------------|
|5~---4~---7~---7~| (x2)


Chorus (1:53)

|----------------------------------------------|
|----------------------------------------------|
|------------4-4-444-44--9-9-999--99-9~-11~----|
|5-5-555--55--------------------------------12~| (x2)


Verse (2:27)

Part 1      Part 2
|--------------------------------------|
|--------------------------------------|
|--------4~--2~----------4~--2~------1~|
|0~--0~----------0~--0~----------0~----| 


Pre-Chorus (2:44)

|-----------------|
|-----------------|
|-----------------|
|5~---4~---7~---7~| (x2)


Chorus (3:06)

|----------------------------------------------|
|----------------------------------------------|
|------------4-4-444-44--9-9-999--99-9~-11~----|
|5-5-555--55--------------------------------12~| (x2)


Bridge (3:29)

Part 1
|--------------------------------------------|
|--------------------------------------------|
|55555555-77777777-1212121212121212-0~--0~-0~|
|--------------------------------------------| (x3)

|-----------------|
|-----------------|
|55555555-77777777|
|-----------------|

Part 2 (4:31)
|-----------------------------------|
|-----------------------------------|
|4~--2~---7777-7777-77--7777-7777-77|
|-----------------------------------|


Chorus (4:54)

|----------------------------------------------|
|----------------------------------------------|
|------------4-4-444-44--9-9-999--99-9~-11~----|
|5-5-555--55--------------------------------12~| (x3)

|----------------------------------------------|
|----------------------------------------------|
|------------4-4-444-44--9~----------9~-11~----|
|5-5-555--55--------------------------------12~|


Hope this helps! C: Please rate and comment! Feedback is appreciated! 

           
            
Hard to play? Try these video lessons and learn fast. | Correct




comments powered by Disqus
↑ Back to top | Tablatures and chords are parodies/interpretations of the original songs. You may use it for private study, scholarship, research or language learning purposes only