» » »

Demon Hunter, Deteriorate Tabs (ver.3)

Artists:  A B C D E F G H I J K L M N O P Q R S T U V W X Y Z # 

Deteriorate Tabs (ver.3)

Demon Hunter Tabs
 Rating:
4/5 (6 votes)
Deteriorate lessons Tabs too difficult? Try these video lessons and learn fast
                Demon Hunter-Deteriorate
Drop B Tuning B-F#-B-E-G#-C#

Intro
E [-----7----------------------]
B [---5---5------12--------7---]
F#[-7----------9----9----5---5-]x4
B [----------9---------5-------]

Verse 1
E [-7------------]
B [-5----12----7-]
F#[-7-----9----5-]
B [-------9----5-]

E [-7---------------]
B [-5----12----7--7-]
F#[-7-----9----5--4-]
B [-------9----5--4-]

E [-7------------]
B [-5----12----7-]
F#[-7-----9----5-]
B [-------9----5-]

E [-7---------------]
B [-5----12----7--7-]
F#[-7-----9----5--4-]
B [-------9----5--4-]

Pre-Chorus
E [-----5------5--------4------4--------9------9--------7------7---]
B [---5---5------5----5---5------5----7---7------7----7---7------7-]x2
F#[-3--------3------2--------2------5--------5------5--------5-----]
B [----------------------------------------------------------------]

Chorus
Gtr. 2
E [-12----------------]
B [-12----2----10-----]
F#[-10----2-----7-----]
B [-10----2-----7-----]
Then Gtr. 1
E [-14-14-16-16-12-]
B [--x--x--x--x--x-]
F#[-12-12-14-14-10-]
Then Gtr. 2
E [-12----------------]
B [-12----2-----9-----]
F#[-10----2-----7-----]
B [-10----2-----7-----]
Then Gtr. 1
E [-14-14-16-16-12-]
B [--x--x--x--x--x-]
F#[-12-12-14-14-10-]

Post-Chorus
E [-----5------5--------4----]
B [---5---5------5----5---5--]
F#[-3--------3------2--------]

Verse 2
E [-7------------]
B [-5----12----7-]
F#[-7-----9----5-]
B [-------9----5-]

E [-7---------------]
B [-5----12----7--7-]
F#[-7-----9----5--4-]
B [-------9----5--4-]

Pre-Chorus

Chorus

Bridge
E [-----------5------12---12---]
B [-3----5----5----2--x-2--x-2-]
F#[-3----5----3----2-10-2-10-2-]x3
B [-3----5---------2----2----2-]

B [-3----5-]
F#[-3----5-]
B [-3----5-]

Interlude
Gtr. 2
E [-----7----------------------]
B [---5---5------12--------7---]
F#[-7----------9----9----5---5-]x2
B [----------9---------5-------]
Then
E [-7------------]
B [-5----12----7-]
F#[-7-----9----5-]x2
B [-------9----5-]
Gtr. 1
E [-14-14-16-16-12-]
B [--x--x--x--x--x-]x2
F#[-12-12-14-14-10-]

Chorus 2
Gtr. 2
E [-12----------------]
B [-12----2----10-----]
F#[-10----2-----7-----]
B [-10----2-----7-----]
Then Gtr. 1
E [-14-14-16-16-12-]
B [--x--x--x--x--x-]
F#[-12-12-14-14-10-]
Then Gtr. 2
E [-12----------------]
B [-12----2-----9-----]
F#[-10----2-----7-----]
B [-10----2-----7-----]
Then Gtr. 1
E [-14-14-16-16-12-]
B [--x--x--x--x--x-]
F#[-12-12-14-14-10-]
Then Gtr. 2
E [-12----------------]
B [-12----2----10-----]
F#[-10----2-----7-----]
B [-10----2-----7-----]
Then Gtr. 1
E [-14-14-16-16-12-]
B [--x--x--x--x--x-]
F#[-12-12-14-14-10-]
Then Gtr. 2
E [-12----------------]
B [-12----2-----7-----]
F#[-10----2-----7-----]
B [-10----2-----7-----]
Then
B [-7---9--5-]
F#[-7--10--5-]
B [-7---9--5-]
Gtr. 1
E [-14--16--12-]
B [--x---x---x-]
F#[-12--14--10-]

I didn't put in Gtr.1 for the verses and 
the Pre/Post Choruses.

Kudos to Adam K. for this tab...
            
Submit corrections

comments powered by Disqus
↑ Back to top | Demon Hunter Tabs for Deteriorate. Lyrics for acoustic guitar and electric guitar. Tablatures and chords are parodies/interpretations of the original songs. You may use it for private study, scholarship, research or language learning purposes only