>
 >
Deteriorate

Deteriorate Guitar Tabs

Demon Hunter - Deteriorate chords, tabs, tablatures, lyrics

Guitar lessons | Add/correct | Request | Top 50 tabs Artists:  A B C D E F G H I J K L M N O P Q R S T U V W X Y Z 0-9

Deteriorate Guitar Tabs – Demon Hunter

CD, Sheet music, Poster

Do you like Deteriorate? Share with your friends now
Bass TabsBass Tabs v2TabsTabs v2Tabs v3Tabs v4

There are 2 guitars playing in parts of the song.
This is my first posted tab, so let me know how I did.

Intro - (x4)

E---------------------------------------------------------------------|
B---------------------------------------------------------------------|
G-------5-------------------------------------------------------------|
D-----3---3----------10-----------5-----------------------------------|
A------------------7----7-------3---3---------------------------------|
D---0-------------7-----------3---------------------------------------|

Verse 1 - (x2) - Strums as chords - 1st chord = 8 strums
2nd chord = 8 strums, and 3rd chord = 16 strums,
4th chord = 8 strums, 5th chord = 8 strums. 6th chord = 8 strums
and 7th chord = 8 strums

E-------------------------------------------------------------------|
B-------------------------------------------------------------------|
G-------------------------------------------------------------------|
D---2-------10------5----------2-------10------5-------2------------|
A---0-------7-------3----------0-------7-------3-------2------------|
D---0-------7-------3----------0-------7-------3-------2------------|

Pre-Chorus (x2)

E-------------------------------------------------------------------|
B-------------------------------------------------------------------|
G-------------------------------------------------------------------|
D----8---8---7---7-----12-----12-----10-----10----------------------|
A---8---8---7---7----10-----10-----10-----10------------------------|
D--8---8---7---7---10-----10-----10-----10--------------------------|

Chorus (x2) 1st chord = 8 strums, 2nd chord = 8 strums, 3rd chord = 16 strums

E-------------------------------------------------------------------|
B-------------------------------------------------------------------|
G-------------------------------------------------------------------|
D-------8----------------------5------------------------------------|
A-------8-----------0----------5------------------------------------|
D-------8-----------0----------5------------------------------------|

E-------------------------------------------------------------------|
B-------------------------------------------------------------------|
G-------------------------------------------------------------------|
D-------------8----------8-----------7------------7-----------------|
A---------8----------8-----------7------------7---------------------|
D-----8----------8----------7-------------7-------------------------|


Verse 2 - (x2) - Strums as chords - 1st chord = 8 strums
2nd chord = 8 strums, and 3rd chord = 16 strums,
4th chord = 8 strums, 5th chord = 8 strums. 6th chord = 8 strums
and 7th chord = 8 strums

E-------------------------------------------------------------------|
B-------------------------------------------------------------------|
G-------------------------------------------------------------------|
D---2-------10-------5----------2-------10------5-------2-----------|
A---0-------7--------3----------0-------7-------3-------2-----------|
D---0-------7--------3----------0-------7-------3-------2-----------|

Pre-Chorus (x2)

E-------------------------------------------------------------------|
B-------------------------------------------------------------------|
G-------------------------------------------------------------------|
D----8---8---7---7-----12-----12-----10-----10----------------------|
A---8---8---7---7----10-----10-----10-----10------------------------|
D--8---8---7---7---10-----10-----10-----10--------------------------|


Chorus (x2) 1st chord = 8 strums, 2nd chord = 8 strums, 3rd chord = 16 strums

Chorus (x2) 1st chord = 8 strums, 2nd chord = 8 strums, 3rd chord = 16 strums

E-------------------------------------------------------------------|
B-------------------------------------------------------------------|
G-------------------------------------------------------------------|
D-------8----------------------5------------------------------------|
A-------8-----------0----------5------------------------------------|
D-------8-----------0----------5------------------------------------|


E----------------------------------------------------------------------|
B----------------------------------------------------------------------|
G---------------------------------------10--10--10-------10--10--10----|
D--11111111---33333333---88888888-------X---X---X--------X---X---X-----|
A--11111111---33333333---88888888--0-0--8---8---8--0--0--8---8---8-----|
D--11111111---33333333---88888888--0-0-------------0--0----------------|


Guitar 1 Plays Top line below (x4)
Guitar 2 plays line below that after the first 2 loops play (x2)

E----------------------------------------------------------------------|
B----------------------------------------------------------------------|
G----------------------------------------------------------------------|
D---------8----8-----7-----7-------------------------------------------|
A-------8----8-----7-----7---------------------------------------------|
D-----8----8-----7-----7-----------------------------------------------|

E----------------------------------------------------------------------|
B----------------------------------------------------------------------|
G---------------------------------12--12--12----14--14--14---10-10-10--|
D---------------------------------X---X---X-----X---X---X----X--X--X---|
A----0------7--------33333333-----10--10--10----12--12--12---8--8--8---|
D----0------7--------33333333------------------------------------------|

Outro Chorus (x2) 1st chord = 8 strums, 2nd chord = 8 strums, 3rd chord = 16 strums

E-------------------------------------------------------------------|
B-------------------------------------------------------------------|
G-------------------------------------------------------------------|
D-------8----------------------5------------------------------------|
A-------8-----------0----------5------------------------------------|
D-------8-----------0----------5------------------------------------|


Lyrics:
Not yet available





Comments


Popular Demon Hunter tabs & chords
Thorns Bass Tabs
Carry Me Down 1 Tabs
Desire The Pain Tabs
Deteriorate 1 Tabs
Infected 1 Tabs
Our Faces Fall Apart Tabs
Relentless Intolerance Tabs
Science Of Lies Tabs
Storm The Gates Of Hell Tabs
The Wind Tabs


Song lyrics



↑ Back to top | Tablatures and chords are parodies/interpretations of the original songs. You may use it for private study, scholarship, research or language learning purposes only
© 2014 AZChords.com Contact us | Privacy policy | DMCA | Add/correct tabs | Request tabs | Top 50 tabs