>
 >
Convalescence 1

Convalescence 1 Guitar Tabs

Darkest Hour - Convalescence 1 chords, tabs, tablatures, lyrics

Guitar lessons | Add/correct | Request | Top 50 tabs Artists:  A B C D E F G H I J K L M N O P Q R S T U V W X Y Z 0-9

Convalescence 1 Guitar Tabs – Darkest Hour

CD, Sheet music, Poster

Do you like Convalescence 1? Share with your friends now
Bass TabsBass Tabs v2TabsTabs v2Tabs v3

Okay, this is my first tab and I noticed no tabs for this song include the second
 This tab is 100% correct.  The tuning is in Dropped-C, low to high: C,G,C,F,A,D.  There are
a few alterations in the outro so be patient.  You have to listen to the song yourself 
hear when guitar 2 plays what in timing with guitar 1.  Enjoy!

Tab key:

x=dead note
h=hammer-on
p=pull-off
fb=full bend
r=release
PH=pinch or artificial harmonic
P.M.<--->=palm mute

Riff 1/Intro

GTR 1    x6
D|---------------------------------------|
A|------(x5)-----------------------------|
F|-10-10-10-10-10--9--9--9--9--9--9--9--9|
C|-x--x--x--x--x---x--x--x--x--x--x--x--x|
G|-8--8--8--8--8---7--7--7--7--7--7--7--7|
C|---------------------------------------|


GTR 2 enters on 3rd time with this, x4, alternating every other time
D|-------------------------------------------------------------------|
A|-------------------------------------------------------------------|
F|-------------------------------------------------------------------|
C|-0-0-0-0-0-0-0-0-0-0-0-0-0-0-0-0-7-7-7-7-7-7-7-7-7-7-7-7-7-7-7-7---|
G|-0-0-0-0-0-0-0-0-0-0-0-0-0-0-0-0-7-7-7-7-7-7-7-7-7-7-7-7-7-7-7-7---|
C|-0-0-0-0-0-0-0-0-0-0-0-0-0-0-0-0-7-7-7-7-7-7-7-7-7-7-7-7-7-7-7-7---|
  <----------Slight P.M.---------------------------------------------|

D|-------------------------------------------------------------------|
A|-------------------------------------------------------------------|
F|-------------------------------------------------------------------|
C|-0-0-0-0-0-0-0-0-0-0-0-0-0-0-0-0-3-3-3-3-3-3-3-3-7-7-7-7-7-7-7-7---|
G|-0-0-0-0-0-0-0-0-0-0-0-0-0-0-0-0-3-3-3-3-3-3-3-3-7-7-7-7-7-7-7-7---|
C|-0-0-0-0-0-0-0-0-0-0-0-0-0-0-0-0-3-3-3-3-3-3-3-3-7-7-7-7-7-7-7-7---|
  <----------Slight P.M.---------------------------------------------|


Riff 2/Chorus

GTR 1 A       x2, A-B, A-B
D|----------------------------------------------------|
A|----------------------------------------------------|
F|-----12----14--15--14------10--12--10------9--10--9-|
C|--12----12--------------12--------------10----------|
G|----------------------------------------------------|
C|----------------------------------------------------|

(continued) B
D|----------------------------------------------------------------|
A|--------------13------------------------------------------------|
F|-----12----14----15--14--14h15p14------10--12--10------9--10--9-|
C|--12----12--------------------------12--------------10----------|
G|----------------------------------------------------------------|
C|----------------------------------------------------------------|


GTR 2        x4
D|-------------------------------------------------------------------|
A|-------------------------------------------------------------------|
F|-------------------------------------------------------------------|
C|-00000000000000000000000000000000033333333333333337777777777777777-|
G|-00000000000000000000000000000000033333333333333337777777777777777-|
C|-00000000000000000000000000000000033333333333333337777777777777777-|
 <----------------------------Full P.M.------------------------------>

Riff 3

GTR 1     x2, one time per alteration
D|-----------------------------------------|
A|------(x5)-------------------------------|
F|-12-12-12-12-12--11-11-11-11-11-11-11-11-|
C|-x--x--x--x--x---x--x--x--x--x--x--x--x--|
G|-10-10-10-10-10--9--9--9--9--9--9--9--9--|
C|-----------------------------------------|

D|-----------------------------------------|
A|------(x5)-------------------------------|
F|-12-12-12-12-12--14-14-14-14-14-14-14-14-|
C|-x--x--x--x--x---x--x--x--x--x--x--x--x--|
G|-10-10-10-10-10--12-12-12-12-12-12-12-12-|
C|-----------------------------------------|

GTR 2     x2, one time per alteration
D|-----------------------------------------------------------------|
A|-----------------------------------------------------------------|
F|-----------------------------------------------------------------|
C|-2-2-2-2-2-2-2-2-2-2-2-2-2-2-2-2-9-9-9-9-9-9-9-9-9-9-9-9-9-9-9-9-|
G|-2-2-2-2-2-2-2-2-2-2-2-2-2-2-2-2-9-9-9-9-9-9-9-9-9-9-9-9-9-9-9-9-|
C|-2-2-2-2-2-2-2-2-2-2-2-2-2-2-2-2-9-9-9-9-9-9-9-9-9-9-9-9-9-9-9-9-|

D|------------------------------------------------------------------------|
A|------------------------------------------------------------------------|
F|-------------------------------------------------9-11-11-11-11-11-11-11-|
C|-2-2-2-2-2-2-2-2-2-2-2-2-2-2-2-2-5-5-5-5-5-5-5-5-x-x--x--x--x--x--x--x--|
G|-2-2-2-2-2-2-2-2-2-2-2-2-2-2-2-2-5-5-5-5-5-5-5-5-7-9--9--9--9--9--9--9--|
C|-2-2-2-2-2-2-2-2-2-2-2-2-2-2-2-2-5-5-5-5-5-5-5-5------------------------|

Riff 4/Interlude

GTR 1            x2, do not play bracketed portion 2nd time
D|-----------------------------------------------------------------------|
A|-----------------------------------------------------------------------|
F|-10---10-------10---10-------10--9----9--------9----9--------9----9--9-|
C|-x----x--------x----x--------x---x----x--------x----x--------x----x--x-|
G|-8----8--------8----8--------8---7----7--------7----7--------7----7--7-|
C|-----------------------------------------------------------------------|

(continued)
D|----------------------------------------------------------|
A|----------------------------------------------------------|
F|-10-----12-----10-----10-----9----------------------------|
C|-x------x------x------x------x----------------------------|
G|-8------10-----8------8------7------[12-10-8-12-10-8-7-8]-|
C|----------------------------------------------------------|

GTR 2            x2, do not play bracketed portion 2nd time
D|-----------------------------------------------------------------------------------|
A|-----------------------------------------------------------------------------------|
F|-----------------------------------------------------------------------------------|
C|-0-0-0-0-0-0-0-0-0-0-0-0-0-0-0-0-10-10-10-10-10-10-10-10-10-10-10-10-10-10-10-10---|
G|-0-0-0-0-0-0-0-0-0-0-0-0-0-0-0-0-10-10-10-10-10-10-10-10-10-10-10-10-10-10-10-10---|
C|-0-0-0-0-0-0-0-0-0-0-0-0-0-0-0-0-10-10-10-10-10-10-10-10-10-10-10-10-10-10-10-10---|
  <-----------------------------Full P.M.--------------------------------------------|

(continued)
D|-------------------------------------------------------------------------|
A|-------------------------------------------------------------------------|
F|-------------------------------------------------------------------------|
C|-8-8-8-8-8-8-8-8-8-8-8-8-8-8-8-8-7-7-7-7-7-7-7-7---[10-8-7-10-8-7-5-7]---|
G|-8-8-8-8-8-8-8-8-8-8-8-8-8-8-8-8-7-7-7-7-7-7-7-7-------------------------|
C|-8-8-8-8-8-8-8-8-8-8-8-8-8-8-8-8-7-7-7-7-7-7-7-7-------------------------|
   <-------------Full P.M.-------------------------------------------------|


Riff 5

GTR 1       x2
D|-----------------------------------------|
A|------(x5)-------------------------------|
F|-12-12-12-12-12--11-11-11-11-11-11-11-11-|
C|-x--x--x--x--x---x--x--x--x--x--x--x--x--|
G|-10-10-10-10-10--9--9--9--9--9--9--9--9--|
C|-----------------------------------------|

GTR 2       x2, one time per alteration
D|-----------------------------------------------------------------|
A|-----------------------------------------------------------------|
F|-----------------------------------------------------------------|
C|-2-2-2-2-2-2-2-2-2-2-2-2-2-2-2-2-9-9-9-9-9-9-9-9-9-9-9-9-9-9-9-9-|
G|-2-2-2-2-2-2-2-2-2-2-2-2-2-2-2-2-9-9-9-9-9-9-9-9-9-9-9-9-9-9-9-9-|
C|-2-2-2-2-2-2-2-2-2-2-2-2-2-2-2-2-9-9-9-9-9-9-9-9-9-9-9-9-9-9-9-9-|

D|-----------------------------------------------------------------|
A|-----------------------------------------------------------------|
F|-----------------------------------------------------------------|
C|-2-2-2-2-2-2-2-2-2-2-2-2-2-2-2-2-5-5-5-5-5-5-5-5-9-9-9-9-9-9-9-9-|
G|-2-2-2-2-2-2-2-2-2-2-2-2-2-2-2-2-5-5-5-5-5-5-5-5-9-9-9-9-9-9-9-9-|
C|-2-2-2-2-2-2-2-2-2-2-2-2-2-2-2-2-5-5-5-5-5-5-5-5-9-9-9-9-9-9-9-9-|


Repeat Riff 2/Chorus


Riff 6/Breakdown

GTR 1 and 2   x4
D|-------------------------------|
A|-------------------------------|
F|-------------------------------|
C|-0--2--3--10--8--7--8--5--3--7-|
G|-0--2--3--10--8--7--8--5--3--7-|
C|-0--2--3--10--8--7--8--5--3--7-|


Solo and under-solo

GTR 1 Solo
D|-15(fb-r)-15(fb-r)-15(fb-r)-15(fb-r)---20------18--17-|
A|-18-------18-------18-------18------------------------|
F|------------------------------------------------------|
C|------------------------------------------------------|
G|------------------------------------------------------|
C|------------------------------------------------------|

(continued)
D|-15-18-20-18-15-18-20-18-15-18-20-18-15-18-20-18-15-18-------------------|
A|-------------------------------------------------------20-18-15----------|
F|----------------------------------------------------------------17-15-14-|
C|-------------------------------------------------------------------------|
G|-------------------------------------------------------------------------|
C|-------------------------------------------------------------------------|

(continued)
D|---------------------------------------------------------------------------------|
A|---------------------------------------------------------------------------------|
F|---------------------------------------------------------------------------------|
C|-17-15-14----------------------------14-15-17-15-14-15-15~--14-15-15-14-15-14----|
G|----------17-16-13-16-17-16-13-16-17----------------------17------------------17-|
C|---------------------------------------------------------------------------------|


(continued)
D|-------------------------------------------------------18---15------------12-|
A|--------------------------------------------------------------17--------14---|
F|-------------------------------------------15-14-14-14----------18----15-----|
C|-14-15-17-17-15-17-15-14----14-15-14-15-17------------------------17---------|
G|-------------------------17--------------------------------------------------|
C|-----------------------------------------------------------------------------|

(continued)
D|-15---14-------------------------------------------------------|
A|--------15----------11-----------------------------------------|
F|----------16------12---12-15-12-9-12-9-----------------14(PH)~-| <- Let ring
C|-----------------14--------------------11-14-11-8-11-8---------|
G|-------------16------------------------------------------------|
C|---------------------------------------------------------------|

GTR 2 under-solo    x4
D|---------------------------------------------------------------------------------|
A|---------------------------------------------------------------------------------|
F|---------------------------------------------------------------------------------|
C|-5--5--5--5--5--5--8--8--8--8--8--8--7--7--7--7--7--7--10--10--10--10--10--10----|
G|-5--5--5--5--5--5--8--8--8--8--8--8--7--7--7--7--7--7--10--10--10--10--10--10----|
C|-5--5--5--5--5--5--8--8--8--8--8--8--7--7--7--7--7--7--10--10--10--10--10--10----|
  <----------------------------------Very slight P.M.(or none)---------------------|


Repeat the Riff 6/Breakdown x2, GTR 2 starts it while GTR 1 is holding the 14PH

GTR 1 enters on the * first time
D|-------------------------------|
A|-------------------------------|
F|--------------*----------------|
C|-0--2--3--10--8--7--8--5--3--7-|
G|-0--2--3--10--8--7--8--5--3--7-|
C|-0--2--3--10--8--7--8--5--3--7-|


Riff 7/Outro

GTR 1            x1
D|-------------------------------------------------|
A|-------------------------------------------------|
F|-10-10-10-10-10-10-10-10-10-10-10-10-10-10-10-10-|
C|-x--x--x--x--x--x--x--x--x--x--x--x--x--x--x--x--|
G|-8--8--8--8--8--8--8--8--8--8--8--8--8--8--8--8--|
C|-------------------------------------------------|

(continued)      x1
D|------------------------------------|
A|------------------------------------|
F|----12----14----15----14-----12--14-|
C|-12----12----12----12--------12--12-|
G|------------------------------------|
C|------------------------------------|

(continued)       x3, on 3rd time play bracketed portion
D|--------------------------------------------------------------------------------------|
A|--------------------------------------------------------------------------------------|
F|----12----14----15----14-----12--14---12--14------------------------------------------|
C|-12----12----12----12--------------------------[12-15-12-14-12-12~-12-15-12-14-12-12~]|
G|--------------------------------------------------------------------------------------|
C|--------------------------------------------------------------------------------------|

(continued)       x1
D|------------------------------------------------|
A|------------------------------------------------|
F|----12----14----15----14-----12--14---12--14----|
C|-12----12----12----12---------------------------|
G|------------------------------------------------|
C|------------------------------------------------|

(continued)       x1
D|-------------------------------------------|
A|----------------13-------------------------|
F|----12----14----------15----14-15----14-15-|
C|-12----12----12----12-------------12-------|
G|-------------------------------------------|
C|-------------------------------------------|

(continued)       x1
D|--------------------------------------------------------------------------------------|
A|--------------------------------------------------------------------------------------|
F|----12----14----15----14-----12--14---12--14------------------------------------------|
C|-12----12----12----12---------------------------12-15-12-14-12-12~-12-15-12-14-12-12~-|
G|--------------------------------------------------------------------------------------|
C|--------------------------------------------------------------------------------------|

(continued)        x3, on 3rd time play bracketed portion
D|-------------------------------------------------------------------------------------|
A|---------------------------------------------[15-18-15-17-15-15~-15-18-15-17-15-15~]-|
F|----12----14----15----14----12-14---12-14--------------------------------------------|
C|-12-12-12-12-12-12-12-12----12-12---12-12--------------------------------------------|
G|-------------------------------------------------------------------------------------|
C|-------------------------------------------------------------------------------------|
PM  -     -     -     -

(continued)       x1
D|------------------------------------------------------------------------------------|
A|-----------------------------------------------------------13-----------------------|
F|----12----14----15----14----12-14---12-14------12----14----------15---14-15---14-15-|
C|-12-12-12-12-12-12-12-12----12-12---12-12---12-12-12-12-12-12-12-12---12-12---12-12-|
G|------------------------------------------------------------------------------------|
C|------------------------------------------------------------------------------------|
PM  -     -     -     -                        -     -     -     -

(continued)       x1
D|------------------------------------------------------------------|
A|---------------------------------------------15-18-15-17-15-15~---|
F|----12----14----15----14----12-14---12-14-------------------------|
C|-12-12-12-12-12-12-12-12----12-12---12-12-------------------------|
G|------------------------------------------------------------------|
C|------------------------------------------------------------------|
PM  -     -     -     -

ends with
D|---------------------------|
A|-18-18-18-17-17-15--13--15-|
F|---------------------------|
C|---------------------------|
G|---------------------------|
C|---------------------------|

GTR 2  x1 (let the chords ring)
D|---------------------------|
A|---------------------------|
F|---------------------------|
C|-0--------5--7----0--------|
G|-0--------5--7----0--------|
C|-0--------5--7----0--------|

(continued)   x3 (let the chords ring, except the PM ones)
D|--------------------------------------------------|
A|--------------------------------------------------|
F|--------------------------------------------------|
C|-0----------10--------8---------7-----5-----3-2-0-|
G|-0----------10--------8---------7-----5-----3-2-0-|
C|-0----------10--------8---------7-----5-----3-2-0-|
P.M.                                         <----->


ends with   (let last open ring)
D|--------------------------------------------------------|
A|--------------------------------------------------------|
F|--------------------------------------------------------|
C|-10--------8--------7-----5-5-5-5-3-3-3-2-0-------------|
G|-10--------8--------7-----5-5-5-5-3-3-3-2-0-------------|
C|-10--------8--------7-----5-5-5-5-3-3-3-2-0-------------|





Comments


Popular Darkest Hour tabs & chords
Demon(S) Bass Tabs
The Legacy Bass Tabs
Accessible Loss Tabs
Demon(S) Tabs
Doomsayer Intro Tabs
Hollow Intro 1 Tabs
Part Ii Tabs
The Patriot Virus Tabs
With A Thousand Words To Say But One Tabs
With Friends Like These Intro Tabs


Song lyrics



↑ Back to top | Tablatures and chords are parodies/interpretations of the original songs. You may use it for private study, scholarship, research or language learning purposes only
© 2014 AZChords.com Contact us | Privacy policy | DMCA | Add/correct tabs | Request tabs | Top 50 tabs