» » »

Darkest Hour, Convalescence Tabs (ver.1)

Artists:  A B C D E F G H I J K L M N O P Q R S T U V W X Y Z # 

Convalescence Tabs (ver.1)

Darkest Hour Tabs
Rating:
3/5 (3 votes)
Hard to play? Try these video lessons and learn fast.
                Darkest Hour
Undoing Ruin
Convalescence 

 
INTRO  X4
d|-------------------------------------------------------------------------|
a|-------------------------------------------------------------------------|
f|-10-10-10-10-10-10-10-10-10-10-10-10-10-10-10-10-10-10-10-\-9-9-9-9-9-9--|
c|-------------------------------------------------------------------------|
g|--8--8--8--8--8--8--8--8--8--8--8--8--8--8--8--8--8--8--8-\-7-7-7-7-7-7--|
c|-------------------------------------------------------------------------|

d|--------|
a|--------|
f|--------|
c|00000000| 
g|00000000|
c|00000000|
  ********

VERSE 1   X2
d|-------------------------------------------------------------------------|
a|-------------------------------------------------------------------------|
f|10-10-10-10-10-10-10-10-10-10-10-10-10-10-10-10-10-10/9-9-9-9-9-9--------|
c|-------------------------------------------------------------------------|
g|8--8--8--8--8--8--8--8--8--8--8--8--8--8--8--8--8--8-/7-7-7-7-7-7--------|
c|-------------------------------------------------------------------------|

CHORUS X2
d|-------------------------------------------------------------------------|
a|-------------------------------------------------------------------------|
f|---12--14-15-14------10-12-10-----9-10-9----12--14-15-17-15-14h15p14-----|
c|12----------------12-----------10---------12-----------------------------|
g|-------------------------------------------------------------------------|
c|-------------------------------------------------------------------------|

d|----------------------|
a|----------------------|
f|---10-12-10----9-10-9-|
c|12----------10--------|
g|----------------------|
c|----------------------|

VERSE 2

d|-------------------------------------------------------------------------|
a|-------------------------------------------------------------------------|
f|12-12-12-12-12-12-12-12-12-12-12-12-12-12-12-12-12-12-12-12\11-11-11-11--|
c|-------------------------------------------------------------------------|
g|10-10-10-10-10-10-10-10-10-10-10-10-10-10-10-10-10-10-10-10\9--9--9--9---|
c|-------------------------------------------------------------------------|

d|-------------------------------------------------------------------------|
a|-------------------------------------------------------------------------|
f|12-12-12-12-12-12-12-12-12-12-12-12-12-12-12-12-12-12-12-12/14-14-14-14--|
c|-------------------------------------------------------------------------|
g|10-10-10-10-10-10-10-10-10-10-10-10-10-10-10-10-10-10-10-10/12-12-12-12--|
c|-------------------------------------------------------------------------|

d|-------------------------------------------------------------------------|
a|-------------------------------------------------------------------------|
f|10-----10-----10-----10-----9-----9-----9-----9-----10-----10-----10-----|
c|-------------------------------------------------------------------------|
g|8------8------8------8------7-----7-----7-----7-----8------8------8------|
c|---0-0----0-0----0-0----0-0---0-0---0-0---0-0---0-0----0-0----0-0----0-0-|
     * *    * *    * *    * *   * *   * *   * *   * *    * *    * *    * *
d|-----------------------------------------------------------|
a|-----------------------------------------------------------|
f|10------12-----12-----10-----10-----10-----10-----9-----9--|
c|-----------------------------------------------------------|
g|8------10------10-----8------8------8------8------7-----7--|
c|---0-0-----0-0----0-0----0-0----0-0----0-0----0-0---0-0----|
     * *     * *    * *    * *    * *    * *    * *   * *
d|-------------------|
a|-------------------|
f|10\9\7--12\10\9/10-|
c|-------------------|
g|8-\7\5--10\8-\7\8--|
c|-------------------|AFTER THIS REPEAT THE PART BEFORE IT ONE TIME...

d|-------------------------------------------------------------------------|
a|-------------------------------------------------------------------------|
f|12-12-12-12-12-12-12-12-12-12-12-12-12-12-12-12-12-12-12-12\11-11-11-11--|
c|-------------------------------------------------------------------------|
g|10-10-10-10-10-10-10-10-10-10-10-10-10-10-10-10-10-10-10-10\9--9--9--9---|
c|-------------------------------------------------------------------------|

d|-------------------------------------------------------------------------|
a|-------------------------------------------------------------------------|
f|12-12-12-12-12-12-12-12-12-12-12-12-12-12-12-12-12-12-12-12\11-11-11-11--|
c|-------------------------------------------------------------------------|
g|10-10-10-10-10-10-10-10-10-10-10-10-10-10-10-10-10-10-10-10\9--9--9--9---|
c|-------------------------------------------------------------------------|
CHORUS X2
d|-------------------------------------------------------------------------|
a|-------------------------------------------------------------------------|
f|---12--14-15-14------10-12-10-----9-10-9----12--14-15-17-15-14h15p14-----|
c|12----------------12-----------10---------12-----------------------------|
g|-------------------------------------------------------------------------|
c|-------------------------------------------------------------------------|

d|-----------------------------|
a|-----------------------------|
f|---10-12-10----9-10-9---(13)-|
c|12----------10---------------|
g|-----------------------------|
c|-----------------------------|DO NOT PLAY THE HARMONIC ON THE 13TH FRET THE SECOND TIME....

BRIDGE  X4
d|-------------------|
a|-------------------|
f|-------------------|
c|0-2-3-10-8-7-8-5-7-|
g|0-2-3-10-8-7-8-5-7-|
c|0-2-3-10-8-7-8-5-7-|

SOLO
d|15---------15-15------15-15------15-15-------15-15----18fb(hold)--18-17--|
a|18fb--18fb-------18fb-------18fb--------18fb-----------------------------|
f|-------------------------------------------------------------------------|
c|-------------------------------------------------------------------------|
g|-------------------------------------------------------------------------|
c|-------------------------------------------------------------------------|

d|---15h18h20p18p15h18h20p18p15h18h20p18p15--------------------------------|
a|18-----------------------------------------20p18p15----------------------|
f|----------------------------------------------------17p15p14-------------|
c|-------------------------------------------------------------17p15p14----|
g|-------------------------------------------------------------------------|
c|-------------------------------------------------------------------------|

d|-------------------------------------------------------------------------|
a|-------------------------------------------------------------------------|
f|------------------------------------------14h15p14----14/15-15-15/18-----|
c|---------------------14h15p14----14h15h17----------17--------------------|
g|17p16p13---13h16h17-----------17-**-**-**--------------------------------|
c|-----------**-**-**------------------------------------------------------|

d|-------------18p15---------------------12h15--12p9---------------6h9-----|
a|15-17-18-17--------17---------------14-------------11----------8---------|
f|------------------------18p15\12/15-------------------12p9\6/9-----------|
c|-------------------------------------------------------------------------|
g|-------------------------------------------------------------------------|
c|-------------------------------------------------------------------------|

d|----------------------------------|
a|----------------------------------|
f|12h15p12\9h12p9\6h9p6\3h6t14~~~~--|
c|----------------------------------|
g|----------------------------------|
c|----------------------------------|

PLAY BRIDGE ONE MORE TIME


THE OUTRO ILL LET YOU FIGURE OUT....ITS BASICALLY THE SAME NOTES AS THE CHORUS......................

WORKED FOR HOURS ON THIS TAB SO PLEASE RATE AND COMMENT
            

comments powered by Disqus
↑ Back to top | Darkest Hour Tabs for Convalescence. Lyrics for acoustic guitar and electric guitar. Tablatures and chords are parodies/interpretations of the original songs. You may use it for private study, scholarship, research or language learning purposes only