>
 >
Convalescence 2

Convalescence 2 Guitar Tabs

Darkest Hour - Convalescence 2 chords, tabs, tablatures, lyrics

Guitar lessons | Add/correct | Request | Top 50 tabs Artists:  A B C D E F G H I J K L M N O P Q R S T U V W X Y Z 0-9

Convalescence 2 Guitar Tabs – Darkest Hour

CD, Sheet music, Poster

Do you like Convalescence 2? Share with your friends now
Bass TabsBass Tabs v2TabsTabs v2Tabs v3
-------------------------------------------------------------------------------
                             Convalescence - Darkest Hour
-------------------------------------------------------------------------------


Tuning: Drop C

Intro (x4)                                                                              (play on 4th time)
D|--------------------------------------------------------------------------------------| |--------|
A|--------------------------------------------------------------------------------------| |--------|
F|10-10-10-10-10-10-10-10-10-10-10-10-10-10-10-10-10-10-10-10-10-10-10-10-10/9-9-9-9/10-| |--------|
C|x--x--x--x--x--x--x--x--x--x--x--x--x--x--x--x--x--x--x--x--x--x--x--x--x--x-x-x-x-x--| |00000000|
G|8--8--8--8--8--8--8--8--8--8--8--8--8--8--8--8--8--8--8--8--8--8--8--8--8-/7-7-7-7/8--| |00000000|
C|--------------------------------------------------------------------------------------| |00000000|
                                                                                           ********
Verse 1 (x2)
D|-------------------------------------------------------------------------------|
A|-------------------------------------------------------------------------------|
F|-9-10-10-10-10-10-10-10-10-10-10-10-10-10-10-10-10-10-10-10-10-10-10-10/9-9-9-9|
C|-x-x--x--x--x--x--x--x--x--x--x--x--x--x--x--x--x--x--x--x--x--x--x--x--x-x-x-x|
G|-7/8--8--8--8--8--8--8--8--8--8--8--8--8--8--8--8--8--8--8--8--8--8--8-/7-7-7-7|
C|-------------------------------------------------------------------------------|
  

Chorus (x2)
D|----5-6-5-|--------------|------------|----5-8-6-5-5h6p5-|--------------|------------|
A|----------|--------------|------------|------------------|--------------|------------|
F|--7-------|-7--10-12--10-|-5--9--10-9-|--7---------------|-7--10-12--10-|-5--9--10-9-|
C|0---------|-x--x--x---x--|-x--x--x--x-|0-----------------|-x--x--x---x--|-x--x--x--x-|
G|----------|-5--8--10--8--|-3--7--8--7-|------------------|-5--8--10--8--|-3--7--8--7-|
C|----------|--------------|------------|------------------|--------------|------------|

Verse 2
D|---------------------------------------------------------------------------------------------------|
A|---------------------------------------------------------------------------------------------------|
F|12-12-12-12-12-12-12-12-12-12-12-12-12-12-12-12-12-12-12-12-12-12-12-12-12/11-11-11-11-11-11-11-11-|
C|x--x--x--x--x--x--x--x--x--x--x--x--x--x--x--x--x--x--x--x--x--x--x--x--x--x--x--x--x--x--x--x--x--|
G|10-10-10-10-10-10-10-10-10-10-10-10-10-10-10-10-10-10-10-10-10-10-10-10-10/9--9--9--9--9--9--9--9--|
C|---------------------------------------------------------------------------------------------------|

D|------------------------------------------------------------------------------------------------|
A|------------------------------------------------------------------------------------------------|
F|12-12-12-12-12-12-12-12-12-12-12-12-12-12-12-12-12-12-12-12-12-12-12-12-12/14-14-14-14-14-14-14-|
C|x--x--x--x--x--x--x--x--x--x--x--x--x--x--x--x--x--x--x--x--x--x--x--x--x--x--x--x--x--x--x--x--|
G|10-10-10-10-10-10-10-10-10-10-10-10-10-10-10-10-10-10-10-10-10-10-10-10-10/12-12-12-12-12-12-12-|
C|------------------------------------------------------------------------------------------------|

D|-----------------------------------------------------------------------------------------------|
A|-----------------------------------------------------------------------------------------------|
F|10-10-10-10-10-10-10-10-10-10-10-10-10-10-10-10-9--9--9--9--9--9--9--9--9--9--9--9--9--9--9--9-|
C|x--x--x--x--x--x--x--x--x--x--x--x--x--x--x--x--x--x--x--x--x--x--x--x--x--x--x--x--x--x--x--x-|
G|8--8--8--8--8--8--8--8--8--8--8--8--8--8--8--8--7--7--7--7--7--7--7--7--7--7--7--7--7--7--7--7-|
C|-----------------------------------------------------------------------------------------------|
     *  *     *  *  *  *     *  *     *  *  *        *  *     *  *  *  *     *  *     *  *  

D|-----------------------------------------------------------------------|-------------------|
A|-----------------------------------------------------------------------|-------------------|
F|9/10-10-10-10-10-10-10-12-12-12-10-10-10-10-10-10-10-10--9--9--9--9--9-|10/9/7--12/10/9/10-|
C|--x--x--x--x--x--x--x---x--x--x--x--x--x--x--x--x--x--x--x--x--x--x--x-|-x-x-x---x--x-x--x-|
G|7/8--8--8--8--8--8--8--10-10-10--8--8--8--8--8--8--8--8--7--7--7--7--7-|-8/7/5--10/-8/7/-8-|
C|-----------------------------------------------------------------------|-------------------|
        *     *  *  *  *     *  *     *  *  *  *     *  *     *  *  *  *

D|-----------------------------------------------------------------------------------------------|
A|-----------------------------------------------------------------------------------------------|
F|10-10-10-10-10-10-10-10-10-10-10-10-10-10-10-10-9--9--9--9--9--9--9--9--9--9--9--9--9--9--9--9-|
C|x--x--x--x--x--x--x--x--x--x--x--x--x--x--x--x--x--x--x--x--x--x--x--x--x--x--x--x--x--x--x--x-|
G|8--8--8--8--8--8--8--8--8--8--8--8--8--8--8--8--7--7--7--7--7--7--7--7--7--7--7--7--7--7--7--7-|
C|-----------------------------------------------------------------------------------------------|
     *  *     *  *  *  *     *  *     *  *  *        *  *     *  *  *  *     *  *     *  *  

D|-----------------------------------------------------------------------|-------------------|
A|-----------------------------------------------------------------------|-------------------|
F|9/10-10-10-10-10-10-10-12-12-12-10-10-10-10-10-10-10-10--9--9--9--9--9-|-------------------|
C|--x--x--x--x--x--x--x---x--x--x--x--x--x--x--x--x--x--x--x--x--x--x--x-|-----P-A-U-S-E-----|
G|7/8--8--8--8--8--8--8--10-10-10--8--8--8--8--8--8--8--8--7--7--7--7--7-|-------------------|
C|-----------------------------------------------------------------------|-------------------|
        *     *  *  *  *     *  *     *  *  *  *     *  *     *  *  *  *

D|---------------------------------------------------------------------------------------------------|
A|---------------------------------------------------------------------------------------------------|
F|12-12-12-12-12-12-12-12-12-12-12-12-12-12-12-12-12-12-12-12-12-12-12-12-12/11-11-11-11-11-11-11-11-|
C|x--x--x--x--x--x--x--x--x--x--x--x--x--x--x--x--x--x--x--x--x--x--x--x--x--x--x--x--x--x--x--x--x--|
G|10-10-10-10-10-10-10-10-10-10-10-10-10-10-10-10-10-10-10-10-10-10-10-10-10/9--9--9--9--9--9--9--9--|
C|---------------------------------------------------------------------------------------------------|


D|---------------------------------------------------------------------------------------------------|
A|---------------------------------------------------------------------------------------------------|
F|12-12-12-12-12-12-12-12-12-12-12-12-12-12-12-12-12-12-12-12-12-12-12-12-12/11-11-11-11-11-11-11-11-|
C|x--x--x--x--x--x--x--x--x--x--x--x--x--x--x--x--x--x--x--x--x--x--x--x--x--x--x--x--x--x--x--x--x--|
G|10-10-10-10-10-10-10-10-10-10-10-10-10-10-10-10-10-10-10-10-10-10-10-10-10/9--9--9--9--9--9--9--9--|
C|---------------------------------------------------------------------------------------------------|

Chorus 
D|----5-6-5-|--------------|------------|----5-8-6-5-5h6p5-|--------------|-------------|
A|----------|--------------|------------|------------------|--------------|-------------|
F|--7-------|-7--10-12--10-|-5--9--10-9-|--7---------------|-7--10-12--10-|-5--9--10-13~|
C|0---------|-x--x--x---x--|-x--x--x--x-|0-----------------|-x--x--x---x--|-x--x--x-----|
G|----------|-5--8--10--8--|-3--7--8--7-|------------------|-5--8--10--8--|-3--7--8-----|
C|----------|--------------|------------|------------------|--------------|-------------|
                                                                                     ph

D|----5-6-5-|--------------|------------|----5-8-6-5-5h6p5-|--------------|------------|
A|----------|--------------|------------|------------------|--------------|------------|
F|--7-------|-7--10-12--10-|-5--9--10-9-|--7---------------|-7--10-12--10-|-5--9--10-9-|
C|0---------|-x--x--x---x--|-x--x--x--x-|0-----------------|-x--x--x---x--|-x--x--x--x-|
G|----------|-5--8--10--8--|-3--7--8--7-|------------------|-5--8--10--8--|-3--7--8--7-|
C|----------|--------------|------------|------------------|--------------|------------|


Bridge (x4)
D|--------------------------|
A|--------------------------|
F|--------------------------|
C|0--2--3-10--8--7--8--5--7-|
G|0--2--3-10--8--7--8--5--7-|
C|0--2--3-10--8--7--8--5--7-|

Solo:
I haven't figured out the solo. If anyone has figured it out please post it.

Outro
D|--------------------------|-----------------------------|
A|--------------------------|-----------------------------|
F|--------------------------|--------------------------10-|
C|0--2--3-10--8--7--8--5--7-|0--2--3-10--8--7--8--5--7--x-|
G|0--2--3-10--8--7--8--5--7-|0--2--3-10--8--7--8--5--7--8-|
C|0--2--3-10--8--7--8--5--7-|0--2--3-10--8--7--8--5--7--0-|
  
                             (x3)            (x2)
D|---5-6-5--5-|-------------|---5-6-5---5--5-|--------------|
A|---------7--|-------------|----------7--7--|--------------|
F|-7----------|-------------|-7--------------|7-10--7--9--7-|
C|0-0-0-0-----|--P-A-U-S-E--|0-0-0-0---------|x--x--x--x--x-|
G|------------|-------------|----------------|5--8--5--7--5-|
C|------------|-------------|----------------|--------------|


D|---5-6-5---5--5-|---5-8-6--5-6--5-6|---5-6-5---5--5-|--------------|
A|----------7--7--|------------------|----------7--7--|--------------|
F|-7--------------|-7----------------|-7--------------|7-10--7--9--7-|
C|0-0-0-0---------|0-0-0-0-----------|0-0-0-0---------|x--x--x--x--x-|
G|----------------|------------------|----------------|5--8--5--7--5-|
C|----------------|------------------|----------------|--------------|

  (x2)                                (x2) 
D|---------------------------------| |--------------|
A|---------------------------------| |--------------|
F|--7---14---15---14--12/14--12/14-| |7-10--7--9--7-|
C|--x----x----x----x---x--x---x--x-| |x--x--x--x--x-|
G|--5---12---13---12--10/12--10/12-| |5--8--5--7--5-|
C|0---0----0----0------------------| |--------------|
  *   *    *    *

D|---------------------------------|---------------------------------|---------------------------------|
A|---------------------------------|---------------------------------|---------------------------------|
F|--7---14---15---14--12/14--12/14-|--7---14---17---15--14-15--14-15-|--7---14---15---14--12-14--12-14-|
C|--x----x----x----x---x--x---x--x-|--x----x----x----x---x--x---x--x-|--x----x----x----x---x--x---x--x-|
G|--5---12---13---12--10/12--10/12-|--5---12---15---13--12/13--12/13-|--5---12---13---12--10/12--10/12-|
C|0---0----0----0------------------|0---0----0----0------------------|0---0----0----0------------------|
  *   *    *    *                   *   *    *    *                   *   *    *    *


D|--------------|--------------------|
A|--------------|--------------------|
F|7-10--7--9--7-|10-10-10-9--7--5--7-|
C|x--x--x--x--x-|x--x--x--x--x--x--x-|
G|5--8--5--7--5-|8--8--8--7--5--3--5-|
C|--------------|--------------------|


| /  slide
| h  hammer-on
| p  pull-off
| ~  vibrato
| +  harmonic
| ph pinch harmonic
| x  mute note
| *  palm mute
===============================================================================





Comments


Popular Darkest Hour tabs & chords
Convalescence Bass Tabs
Convalescence 1 Bass Tabs
Hollow Bass Tabs
An Epitaph Tabs
Closing On The Day Tabs
District Divided Tabs
Doomsayer Intro Tabs
Mark Of The Judas 1 Tabs
Sanctuary Tabs
This Curse Tabs


Song lyrics



↑ Back to top | Tablatures and chords are parodies/interpretations of the original songs. You may use it for private study, scholarship, research or language learning purposes only
© 2014 AZChords.com Contact us | Privacy policy | DMCA | Add/correct tabs | Request tabs | Top 50 tabs