» » »

Convalescence Bass tabs (ver.1)

Artists:  A B C D E F G H I J K L M N O P Q R S T U V W X Y Z # 

Convalescence Bass tabs (ver.1)

Darkest Hour
Rating:
5/5 (2 votes)

Hard to play? Try these video lessons and learn fast.
                The song is already in the right order, it shouldn't be hard to figure out how many 
to play each part. Have fun.

F|-------|------------------------------------|
C|-------|------------------------------------|
G|--8/1--|----8---8---8---8---8---8---7----7--|
C|-------|--00--00--00--00--00--00--00-0-00---|

F|------------------------------------|
C|------------------------------------|
G|----8---8---8---8---8---8---7---7---|
C|--00-000-000-000-000-000-000-000-0--|

F|-------------------------------------------------------------------------|
C|-------------------------------------------------------------------------|
G|-------------------------------------------------------------------------|
C|--0000000000000000-33333333-22222222-0000000000000000-33333333/77777777--|

F|-----------------------------------------|
C|-----------------------------------------|
G|----10---10---10---10---10---10--9----9--|
C|--00---00---00---00---00---00--00-0-00---|

F|------------------------------------------|-------|
C|------------------------------------------|-------|
G|----10---10---10---10---10---10---9---9---|--8/1--|
C|--00--000--000--000--000--000--000-000-0--|-------|

F|--------------------------------------|
C|--------------------------------------|
G|--8xx8xxxx8xx8xxxx8-7xx7xxxx7xx7xxxx--|
C|--------------------------------------|

F|--------------------------------------------------------|
C|--------------------------------------------------------|
G|--78-10xx-8xxxx-8xx-7xxxx-7xx7xxxx-10-8-7-10-8-7-8-7----|
C|--------------------------------------------------------|

F|--------------------------------------|
C|--------------------------------------|
G|--8xx8xxxx8xx8xxxx8-7xx7xxxx7xx7xxxx--|
C|--------------------------------------|

F|------------------------------------|
C|------------------------------------|
G|--78-10xx-8xxxx-8xx-7xxxx-7xx7xxxx--|
C|------------------------------------|

F|-------------------------------------------------------------|
C|-------------------------------------------------------------|
G|--101010101010101010101010101010101010101010101010109999999--|
C|-------------------------------------------------------------|

F|-------------------------------------------------------------------------|
C|-------------------------------------------------------------------------|
G|-------------------------------------------------------------------------|
C|--0000000000000000-33333333-22222222-0000000000000000-33333333/77777777--|

F|-------------------------------------|
C|-------------------------------------|
G|-------------------------------------|
C|--000-222-333-101010-888-77--555-777-|

F|-------------------------------------------------------------------------|
C|-------------------------------------------------------------------------|
G|-------------------------------------------------------------------------|
C|--0000000000000000-55555555-44444444-2222222222222222-33333333/77777777--|

F|-------------------------------------|
C|-------------------------------------|
G|-------------------------------------|
C|--000-222-333-101010-888-77--555-777-|

F|---------------------------------------------------------------|
C|----5-7-8-7--5-7-5h7----5-7-10-8--7-8-7h8----5-7-8-7--5-7-5h7--|
G|--5-------------------5--------------------5-------------------|
C|---------------------------------------------------------------|

F|---------------|-------------|
C|---------------|-------------|
G|--5-8p7-8p7-5--|--8-7-5-3-5--|
C|---------------|-------------|
            
Hard to play? Try these video lessons and learn fast. | Correct




comments powered by Disqus
↑ Back to top | Tablatures and chords are parodies/interpretations of the original songs. You may use it for private study, scholarship, research or language learning purposes only