» » »

Danko Jones, Code Of The Road Tabs (ver.1)

Artists:  A B C D E F G H I J K L M N O P Q R S T U V W X Y Z # 

Code Of The Road Tabs (ver.1)

Danko Jones Tabs
Rating:
3/5 (3 votes)
Code Of The Road lessons Tabs too difficult? Try these video lessons and learn fast
                -------------------------------------------------------------------------------
-------------------------------------------------------------------------------

Tuning: Standard

Pretty easy song, here are all the notes you need, you just have to work out the order

Intro:
e|---------------------------------------------------------------------------|
B|-10-10-10-----9----------10-10-10---9--9--9--------------------------------|
G|-14-14-14----13-x13------14-14-14--13-13-13--------------------------------|
D|---------------------------------------------9-9-9-9-9-9-9-9-9-9-----------|
A|---------------------------------------------------------------------------|
E|---------------------------------------------------------------------------|
Verse:  just the chords , work out the strumming yourself
e|---------------------------------------------------------------------------|
B|---------------------------------------------------------------------------|
G|--------9-----9------------------------------------------------------------|
D|-11-----9--7--9--7---------------------------------------------------------|
A|-11-----7--7--7--7---------------------------------------------------------|
E|--9--------5-----5---------------------------------------------------------|
Chorus:
e|---------------------------------------------------------------------------|
B|---------------------------------------------------------------------------|
G|---9--11--6---2--9--4------------------------------------------------------|
D|---9--11--6---2--9--4------------------------------------------------------|
A|---7---9--4---0--7--2------------------------------------------------------|
E|---------------------------------------------------------------------------|

e|---------------------------------------------------------------------------|
B|-10-10-10-----9----------10-10-10---9--9--9--------------------------------|
G|-14-14-14----13-x13------14-14-14--13-13-13--------------------------------|
D|---------------------------------------------9-9-9-9-9-9-9-9-9-9-----------|
A|---------------------------------------------------------------------------|
E|---------------------------------------------------------------------------|

e|---------------------------------------------------------------------------|
B|-10-10-10----12----------10-10-10---9--9--9--------------------------------|
G|-14-14-14----16-x13------14-14-14--13-13-13--------------------------------|
D|---------------------------------------------9-9-9-9-9-9-9-9-9-9-----------|
A|---------------------------------------------------------------------------|
E|---------------------------------------------------------------------------|



| /  slide up
| \  slide down
| h  hammer-on
| p  pull-off
| ~  vibrato
| +  harmonic
| x  Mute note
===============================================================================
            

comments powered by Disqus
↑ Back to top | Danko Jones Tabs for Code Of The Road. Lyrics for acoustic guitar and electric guitar. Tablatures and chords are parodies/interpretations of the original songs. You may use it for private study, scholarship, research or language learning purposes only