» » »

Danko Jones, Code Of The Road Tabs (ver.2)

Artists:  A B C D E F G H I J K L M N O P Q R S T U V W X Y Z # 

Code Of The Road Tabs (ver.2)

Danko Jones Tabs
Rating:
0/5 (0 votes)
Code Of The Road lessons Tabs too difficult? Try these video lessons and learn fast
                Band: Danko Jones

Intro
e|-----------------|
B|-----------------|
G|-14-13-14-13-----|
D|-------------12--|
A|-----------------|
E|-----------------|
  just the note's not the stumming


Verse/Chorus
e|-----------------|
B|-----------------|
G|-----------------|
D|-11-7-9----------|
A|-11-7-9----------|
E|-9--5-7----------|
  just the chords not the strumming

Pre-Chorus
e|-----------------|
B|-----------------|
G|-9-11------------|
D|-9-11-11-7-2-9---|
A|-7-9--11-7-2-9---|
E|------9--5-0-7---|
  just the chords not the strumming

Danko does two slides(downwards) in the song
e|-----------------|
B|-----------------|
G|-----------------|
D|-11\0------------|
A|-11\0------------|
E|-9\\0------------|

And one time changes the intro lick into this lick
e|--------------------|
B|--------------------|
G|-14-16-13-14-13-----|
D|----------------12--|
A|--------------------|
E|--------------------|
  just the note's not the stumming
            

comments powered by Disqus
↑ Back to top | Danko Jones Tabs for Code Of The Road. Lyrics for acoustic guitar and electric guitar. Tablatures and chords are parodies/interpretations of the original songs. You may use it for private study, scholarship, research or language learning purposes only