» » »

Danko Jones, Sex Change Shake Tabs (ver.1)

Artists:  A B C D E F G H I J K L M N O P Q R S T U V W X Y Z # 

Sex Change Shake Tabs (ver.1)

Danko Jones Tabs
 Rating:
4/5 (4 votes)
Sex Change Shake lessons Tabs too difficult? Try these video lessons and learn fast
                
This is my first tab, any suggestions or corrections will be appreciated.


Legend:
. = palm mute
/ = slide up

Tuning: E A D G B E


 / - - - - - -4 times- - - - - - - \
|-----------------|-----------------|-----------------|-----------------|
|-----------------|-----------------|-----------------|-----------------|
|-----------------|-----------------|-----------------|-----------------|
|-----------------|-----------------|-6---------------|-----------------|
|-8-8-8-8-8-8-8-8-|-8-8-8-8-8-8-8-8-|-4---------------|-----------------|
|-6-6-6-6-6-6-6-6-|-6-6-6-6-6-6-6-6-|-----------------|-----------------|
  . . . . . . . .   . . . . . . . .

|-----------------|-----------------|-----------------|-----------------|
|-----------------|-----------------|-----------------|-----------------|
|-----------------|-----------------|-----------------|-----------------|
|---------6/8-----|---------6/8-6/8-|---------6/8-----|---------6/8-6/8-|
|-8-8-8-8-4/6-8-8-|-8-8-8-8-4/6-4/6-|-8-8-8-8-4/6-8-8-|-8-8-8-8-4/6-4/6-|
|-6-6-6-6-----6-6-|-6-6-6-6---------|-6-6-6-6-----6-6-|-6-6-6-6---------|
              . .   . . . .           . . . .     . .   . . . .

                   / - -5 times- - \  crescendo ---------------------->
|-----------------|-----------------|-----------------|-----------------|
|-----------------|-----------------|-----------------|-----------------|
|-----------------|-----------------|-----------------|-----------------|
|-----------------|-----------------|-----------------|-----------------|
|-8---------------|-----------------|-8-8-8-8-8-8-8-8-|-8-8-8-8-8-8-8-8-|
|-6---------------|-----------------|-6-6-6-6-6-6-6-6-|-6-6-6-6-6-6-6-6-|
                                      . . . . . . . .   . . . . . . . .


|-----------------|-----------------|-----------------|-----------------|
|-----------------|-----------------|-----------------|-----------------|
|-----------------|-----------------|-----------------|-----------------|
|-6---------------|-----------------|---------6/8-----|---------6/8-6/8-|
|-4---------------|-----------------|-8-8-8-8-4/6-8-8-|-8-8-8-8-4/6-4/6-|
|-----------------|-----------------|-6-6-6-6-----6-6-|-6-6-6-6---------|
                                                  . .   . . . .


|-----------------|-----------------|-----------------|-----------------|
|-----------------|-----------------|-----------------|-----------------|
|-----------------|-----------------|-----------------|-----------------|
|---------6/8-----|---------6/8-6/8-|-6---------------|-----------------|
|-8-8-8-8-4/6-8-8-|-8-8-8-8-4/6-4/6-|-4---------------|-----------------|
|-6-6-6-6-----6-6-|-6-6-6-6---------|-----------------|-----------------|
  . . . .     . .   . . . .


|-----------------|-----------------|-----------------|-----------------|
|-----------------|-----------------|-----------------|-----------------|
|-----------------|-----------------|-----------------|-----------------|
|---------6/8-----|---------6/8-6/8-|---------6/8-----|---------6/8-6/8-|
|-8-8-8-8-4/6-8-8-|-8-8-8-8-4/6-4/6-|-8-8-8-8-4/6-8-8-|-8-8-8-8-4/6-4/6-|
|-6-6-6-6-----6-6-|-6-6-6-6---------|-6-6-6-6-----6-6-|-6-6-6-6---------|
  . . . .     . .   . . . .           . . . .     . .   . . . .


 / - - - - - - - - - - - - - - -2 times- - - - - - - - - - - - - - - - \
|-----------------|-----------------|-----------------|-----------------|
|-----------------|-----------------|-----------------|-----------------|
|-----------------|-----------------|-----------------|-----------------|
|-----------------|-----------------|-----------------|-----------------|
|-6---7-8---x-8---|-8---8---8---8---|-6---7-8---x-8---|-8---8---x-8---8-|
|-4---5-6---x-6---|-6---6---6---6---|-4---5-6---x-6---|-6---6---x-6---6-|

 / - - - - - -3 times- - - - - - - \ / - - - - - -2 times- - - - - - - \
|-----------------|-----------------|-----------------|-----------------|
|-----------------|-----------------|-----------------|-----------------|
|-----------------|-----------------|-----------------|-----------------|
|-----------------|-----------------|-6-6-6-6-6-6-6-6-|-6-6-6-6-6-6-6-6-|
|-6-6-7-8---------|-----------------|-4-4-4-4-4-4-4-4-|-4-4-4-4-4-4-4-4-|
|-4-4-5-6---------|-----------------|-----------------|-----------------|


 / - - - - - -4 times- - - - - - - \
|-----------------|-----------------|-----------------|-----------------|
|-----------------|-----------------|-----------------|-----------------|
|-----------------|-----------------|-----------------|-----------------|
|-----------------|-----------------|-6---------------|-----------------|
|-8-8-8-8-8-8-8-8-|-8-8-8-8-8-8-8-8-|-4---------------|-----------------|
|-6-6-6-6-6-6-6-6-|-6-6-6-6-6-6-6-6-|-----------------|-----------------|
  . . . . . . . .   . . . . . . . .

|-----------------|-----------------|-----------------|-----------------|
|-----------------|-----------------|-----------------|-----------------|
|-----------------|-----------------|-----------------|-----------------|
|---------6/8-----|---------6/8-6/8-|---------6/8-----|---------6/8-6/8-|
|-8-8-8-8-4/6-8-8-|-8-8-8-8-4/6-4/6-|-8-8-8-8-4/6-8-8-|-8-8-8-8-4/6-4/6-|
|-6-6-6-6-----6-6-|-6-6-6-6---------|-6-6-6-6-----6-6-|-6-6-6-6---------|
  . . . .     . .   . . . .           . . . .     . .   . . . .

                   / - -5 times- - \  crescendo ---------------------->
|-----------------|-----------------|-----------------|-----------------|
|-----------------|-----------------|-----------------|-----------------|
|-----------------|-----------------|-----------------|-----------------|
|-----------------|-----------------|-----------------|-----------------|
|-8---------------|-----------------|-8-8-8-8-8-8-8-8-|-8-8-8-8-8-8-8-8-|
|-6---------------|-----------------|-6-6-6-6-6-6-6-6-|-6-6-6-6-6-6-6-6-|
                                      . . . . . . . .   . . . . . . . .


|-----------------|-----------------|-----------------|-----------------|
|-----------------|-----------------|-----------------|-----------------|
|-----------------|-----------------|-----------------|-----------------|
|-6---------------|-----------------|---------6/8-----|---------6/8-6/8-|
|-4---------------|-----------------|-8-8-8-8-4/6-8-8-|-8-8-8-8-4/6-4/6-|
|-----------------|-----------------|-6-6-6-6-----6-6-|-6-6-6-6---------|
                                      . . . .     . .   . . . .


|-----------------|-----------------|-----------------|-----------------|
|-----------------|-----------------|-----------------|-----------------|
|-----------------|-----------------|-----------------|-----------------|
|---------6/8-----|---------6/8-6/8-|-6---------------|-----------------|
|-8-8-8-8-4/6-8-8-|-8-8-8-8-4/6-4/6-|-4---------------|-----------------|
|-6-6-6-6-----6-6-|-6-6-6-6---------|-----------------|-----------------|
  . . . .     . .   . . . .


|-----------------|-----------------|-----------------|-----------------|
|-----------------|-----------------|-----------------|-----------------|
|-----------------|-----------------|-----------------|-----------------|
|---------6/8-----|---------6/8-6/8-|---------6/8-----|---------6/8-6/8-|
|-8-8-8-8-4/6-8-8-|-8-8-8-8-4/6-4/6-|-8-8-8-8-4/6-8-8-|-8-8-8-8-4/6-4/6-|
|-6-6-6-6-----6-6-|-6-6-6-6---------|-6-6-6-6-----6-6-|-6-6-6-6---------|
  . . . .     . .   . . . .           . . . .     . .   . . . .


 / - - - - - - - - - - - - - - -4 times- - - - - - - - - - - - - - - - \
|-----------------|-----------------|-----------------|-----------------|
|-----------------|-----------------|-----------------|-----------------|
|-----------------|-----------------|-----------------|-----------------|
|-----------------|-----------------|-----------------|-----------------|
|-6---7-8---x-8---|-8---8---8---8---|-6---7-8---x-8---|-8---8---x-8---8-|
|-4---5-6---x-6---|-6---6---6---6---|-4---5-6---x-6---|-6---6---x-6---6-|


 / - - - - - -2 times- - - - - - - \
|-----------------|-----------------|-----------------|
|-----------------|-----------------|-----------------|
|-----------------|-----------------|-----------------|
|-6-6-6-6-6-6-6-6-|-6-6-6-6-6-6-6-6-|-----------------|
|-4-4-4-4-4-4-4-4-|-4-4-4-4-4-4-4-4-|-6-6-7-8---------|
|-----------------|-----------------|-4-4-5-6---------|
            
Submit corrections

comments powered by Disqus
↑ Back to top | Danko Jones Tabs for Sex Change Shake. Lyrics for acoustic guitar and electric guitar. Tablatures and chords are parodies/interpretations of the original songs. You may use it for private study, scholarship, research or language learning purposes only