» » »

Like Dynamite Tabs (ver.1)

Artists:  A B C D E F G H I J K L M N O P Q R S T U V W X Y Z # 

Like Dynamite Tabs (ver.1)

Danko Jones
Rating:
0/5 (0 votes)

Hard to play? Try these video lessons and learn fast.
                Like Dynamite by Danko Jones


INTRO/MAIN RIFF      x3
e---------------------|
B---------------------|
G--77--55--55-44--77--|
D--77--55--55-44--77--|
A--55--33--33-22--55--|
E---------------------|

0:18
e-----------------------------------|
B-----------------------------------|
G--77--55---------55-44--77---------|
D--77--55---------55-44--77---------|
A--55--33---------33-22--55--3/5-3--|
E----------3br-1--------------------|
 

CHORUS                                      x2
e--------------------------------------------|
B--------------------------------------------|
G--55555555-----------------------55-44--77--|
D--55555555------3h5-5br-3---3----55-44--77--|
A--33333333--3h5-----------5---3--33-22--55--|
E--------------------------------------------|
   xxxxxxxx

1:25
e----------------------------------------------------------------------------------|
B----------------------------------------------------------------------------------|
G----------------------------------------------------------------------------------|
D-----------------------55555555-4444-7777777-----------------------5555-55-44-77--|
A------3h5-5br-3---3----55555555-4444-7777777------3h5-5br-3---3----5555-55-44-77--|
E--3h5-----------5---3--33333333-2222-5555555--3h5-----------5---3--3333-33-22-55--|

1:37
e--------------------------------------------------------------------------|
B--------------------------------------------------------------------------|
G--7--5--------7--5--------7777--5555--------------7777--5555--------------|
D--7--5--7--5--7--5--7--5--7777--5555--7777--5555--7777--5555--7777--5555--|
A--5--3--7--5--5--3--7--5--5555--3333--7777--5555--5555--3333--7777--5555--|
E--------5--3--------5--3--------------5555--3333--------------5555--3333--|


Any corrections please comment
Thanks
            
Hard to play? Try these video lessons and learn fast. | Correct




comments powered by Disqus
↑ Back to top | Tablatures and chords are parodies/interpretations of the original songs. You may use it for private study, scholarship, research or language learning purposes only