» » »

The Robot With Human Hair Bass tabs (ver.1)

Artists:  A B C D E F G H I J K L M N O P Q R S T U V W X Y Z # 

The Robot With Human Hair Bass tabs (ver.1)

Dance Gavin Dance
Rating:
0/5 (0 votes)

Tabs too difficult? Try these video lessons and learn fast.
                "(Part3)
G|------------------------------------------------------------|
D|------------------------------------------------------------|
A|-----------------------55-5-33333333------------------------|
D|-2222222222-55555555555-------------0000000000000-----------|(x3)

G|-------------------------------------------------------|
D|-------------------------------------------------------|
A|-77777777-1010101010-3333333333------------------------|
D|-------------------------------000000000000------------|

G|--------11p9-----------|
D|----------------12-----|
A|-5h7--------9h10-------|
D|----222-----------9-5--|(x12)

G|--------------------------------------------------------|
D|--------------------------------------------------------|
A|-33-3-33-333-55-55-555-55-222-22-222-22-000-00-000-000--|
D|--------------------------------------------------------|(x2)

G|-----------------------------------------------------|
D|-----------------------------------------------------|
A|-3-33-5-55-0-000000000-333333-555555-----------------|
D|------------------------------------22222222222------|

G|----------------------------------|
D|-----------------7--------------5-|
A|-5h7-55557-555557-5h755557-55557--|
D|----------------------------------|

G|---------------------------------------|
D|---------------------------------------|
A|-----------------5555555---------------|
D|-22222222-5555555-------555555444444---|(x2)

G|-------------------------------------|
D|-7p5---------------------------------|
A|----7p5h7------------------------5h7-|
D|---------777x999x55-77x99-5h7-5h7----|

G|-------------------------------------------------------|
D|-------------------------------------------------------|
A|-777-555-999-12121212-3-3-3-0~~777-555-0-0-0-3-3-0~~~--|
D|-------------------------------------------------------|
"            
Tabs too difficult? Try these video lessons and learn fast.


comments powered by Disqus
↑ Back to top | Tablatures and chords are parodies/interpretations of the original songs. You may use it for private study, scholarship, research or language learning purposes only