» » »

Me And Zoloft Get Along Just Fine Bass tabs (ver.1)

Artists:  A B C D E F G H I J K L M N O P Q R S T U V W X Y Z # 

Me And Zoloft Get Along Just Fine Bass tabs (ver.1)

Dance Gavin Dance
Rating:
0/5 (0 votes)

Tabs too difficult? Try these video lessons and learn fast.
                Me and Zoloft Get Along Just Fine by Dance Gavin Dance

TIP 1: For this whole song, match the double bass. That is how the bass line is in this song. 

TIP 2: This song is hard to explain over the internet. Try to match the notes/tab with the song. 


Intro (0:00)

G|----------------------------------------------------------------|
D|----------------------------------------------------------------|
A|--------------------3333--33333---------------------------------|
E|-0000-000-3333-333----------------------------------------------|


(0:18)(match bass drum)
G|-----------------------------------------|
D|----------00-00-------------00-00--------|
A|-----------------------------------------|
E|-00-00-------------00-00-----------------|


(0:40, play this twice).
G|---------------------------------------------------------------------------|
D|---------------------------------------------------------------------------|
A|-3333-3333-33-0000-0000-00-------------------------------------------------|
E|---------------------------0000-0000-00-0000-0000--------------------------|


(1:08)
G|-----------------------------------------------|
D|----------00-0-0--0----------00-0-0--0---------|
A|-3333333------------3333333--------------------|
E|-----------------------------------------------|


(1:15, match the double bass drum [like always]) 
G|----------------------------------------|
D|-----------------------000000-----------|
A|---2222222-----------2--------33333333--|
E|-0---------0-3333333--------------------|

(1:22)
G|--------------------------------------------------------------------------|
D|--------------------------------------------------------------------------|
A|-3-33-333-5h77-5h7--3-33-333-5h77-5h7-------------------------------------|
E|--------------------------------------------------------------------------|
 
(1:43)
G|--------------------------------------------|
D|--------------------------------------------|
A|-55555555-------55555555------22222222--5-5-|
E|-----------2-2-----------2-2----------------|

(1:52, play twice again)
Chorus X2 (1:52-2:14)
G|-----------------------------------------------------------------------|
D|--------------------------0h2------------------------------------------|
A|--333-333-33------------------2p0--------------------------------------|
E|----------------5555-5555---------0000-0000-00-0000-0000-00------------|





(2:30, play this 4 times).
G|-------------------------|
D|---------------0~-----1~-|
A|-------------------------|
E|-0~-----1~---------------|

(2:59, you play through again, but end on the open D note).
G|-------------------|
D|---------------0~--|
A|-------------------|
E|-0~-----1~---------|


Thats it! Have fun
            
Tabs too difficult? Try these video lessons and learn fast.


comments powered by Disqus
↑ Back to top | Tablatures and chords are parodies/interpretations of the original songs. You may use it for private study, scholarship, research or language learning purposes only