>
 >
Buffalo!

Buffalo! Guitar Tabs

Dance Gavin Dance - Buffalo! chords, tabs, tablatures, lyrics

Guitar lessons | Add/correct | Request | Top 50 tabs Artists:  A B C D E F G H I J K L M N O P Q R S T U V W X Y Z 0-9

Buffalo! Guitar Tabs – Dance Gavin Dance

CD, Sheet music, Poster

Do you like Buffalo!? Share with your friends now
Tabs
----------------------------------------------------------------------------
----------------------------------------------------------------------------

This song was tough to tab so i hope it is clear enough. I rated it intermediate because 
isn't as hard to play as it seems at first!

Tuning: Standard

Guitar 1 (Left Speaker/Headphone) - Will Swan
Guitar 2 (Right Speaker/Headphone) - Zac Garren

INTRO (Play 4 Times)

Guitar 1

e|-15p0---------------------------|----------------------------------|
B|------12h15p0--7h8p7p0----------|--7h8p0---------8p0-10p0-12p0-----|
G|---------------------------7h9--|------------7---------------------|
D|-----------------------7h9------|--------7h9-----------------------|
A|--------------------------------|----------------------------------|
E|--------------------------------|----------------------------------|

e|----------------------------12h15-15/19-|-19-(tremolo pick)---------------|
B|-15p12-----------------15p12------------|---------------------------------|
G|-------14p12--12h14p12------------------|---------------------------------|
D|----------------------------------------|---------------------------------|
A|----------------------------------------|---------------------------------|
E|----------------------------------------|---------------------------------|

Guitar 2 (work out your own strumming pattern for the chords, bars match up with gtr1's part)

e|----|----|----|--15p14------------------15~----|
B|----|----|----|--------15p0-------12h15--------|
G|-9--|-7--|-9--|-------------12h14--------------|
D|-9--|-7--|-9--|--------------------------------|
A|-7--|-5--|-7--|--------------------------------|
E|----|----|----|--------------------------------|

VERSE PART 1 (Play 4 Times)

Guitar 1

e|-19--------17----15----|--------------------10-12-14h15p14----------------|
B|----15-17~----15----12-|-15br-12h15-10h12------------------12~-15~--------|
G|-----------------------|-----------------12------------------------7-7-9~-|
D|-----------------------|--------------------------------------------------|
A|-----------------------|--------------------------------------------------|
E|-----------------------|--------------------------------------------------|

Guitar 2 (I suggest listening out of just the right earphone to hear the timing)

e|--12-----------------------|--12--------(15)----15------15------|
B|-15br--12-15~---12----12---|-15br--12-15~----------19~-----17~--|
G|------------------14-------|------------------------------------|
D|-----------------------14~-|------------------------------------|
A|---------------------------|------------------------------------|
E|---------------------------|------------------------------------|

e|--12---------------------------|--12--------(15)----15------15------|
B|-15br--12-15~---12----12-------|-15br--12-15~----------19~-----17~--|
G|------------------14------12~--|------------------------------------|
D|-----------------------14------|------------------------------------|
A|-------------------------------|------------------------------------|
E|-------------------------------|------------------------------------|

VERSE PART 2

Guitar 1

e|-0-0-0---------0-------------14-14-14-14-14-14-14-----|
B|-0-0-0-3-x-3-x-0--------------x--x--x--x--x--x--x-----|
G|-----------------------7+----11-11-11-11-11-11-11-----| X4
D|-2-2-2-2-x-2-x-2----7+-------12-12-12-12-12-12-12-----|
A|-2-2-2-2-x-2-x-2--------------------------------------|
E|-0-0-0-0-x-0-x-0--------------------------------------|

e|-14-----------------15----------------|
B|--x--Tremolo 24 -----x--Tremolo 8-----|
G|-11---Times---------12---Times--------| X4
D|-12-----------------14----------------|
A|--------------------------------------|
E|--------------------------------------|

e|--------------19-----------------------------------------------|
B|--End Verse----x-----------------------------------------------|
G|--On This-----16-----------------------------------------------|
D|---Chord------17-----------------------------------------------|
A|---------------------------------------------------------------|
E|---------------------------------------------------------------|


Guitar 2 (Play 8 Times)

e|-2----------------xxx--------------------------------------|
B|---3---3-x-3-x-5--xxx--5p3p0-------------------------------|
G|-----4------------xxx--------4p2p0-------------------------|
D|-----------------------------------2p0---------------------|
A|-----------------------------------------------------------|
E|-----------------------------------------------------------|

e|-2----------------xxx--------------------------------------|
B|---3---3-x-3-x-5--xxx--5p3p0-5p3p0-5p3---------------------|
G|-----4------------xxx--------------------------------------|
D|-----------------------------------------------------------|
A|-----------------------------------------------------------|
E|-----------------------------------------------------------|

2nd INTRO

e|-15p0---------------------------|----------------------------------|
B|------12h15p0--7h8p7p0----------|--7h8p0---------8p0-10p0-12p0-----|
G|---------------------------7h9--|------------7---------------------|
D|-----------------------7h9------|--------7h9-----------------------|
A|--------------------------------|----------------------------------|
E|--------------------------------|----------------------------------|

e|----------------------------12h15-15/19-|-19-(tremolo pick)--|
B|-15p12-----------------15p12------------|--------------------|
G|-------14p12--12h14p12------------------|--------------------|
D|----------------------------------------|--------------------| X2
A|----------------------------------------|--------------------|
E|----------------------------------------|--------------------|

e|-15p0---------------------------|-------------------|
B|------12h15p0--7h8p7p0----------|--7h8p0------------|
G|---------------------------7h9--|------------7-7~---|
D|-----------------------7h9------|--------7h9--------|
A|--------------------------------|-------------------|
E|--------------------------------|-------------------|

e|-15p0---------------------------|-------------------|
B|------12h15p0--7h8p7p0----------|--7h8p0--------7*--| * Pinch
G|---------------------------7h9--|------------7------| Harmonic
D|-----------------------7h9------|--------7h9--------|
A|--------------------------------|-------------------|
E|--------------------------------|-------------------|

e|-15p0---------------------------|----------------------------------|
B|------12h15p0--7h8p7p0----------|--7h8p0---------8p0-10p0-12p0-----|
G|---------------------------7h9--|------------7---------------------|
D|-----------------------7h9------|--------7h9-----------------------|
A|--------------------------------|----------------------------------|
E|--------------------------------|----------------------------------|

e|----------------------------12h15-15/19-|-19-(tremolo pick)---------------|
B|-15p12-----------------15p12------------|---------------------------------|
G|-------14p12--12h14p12------------------|---------------------------------|
D|----------------------------------------|---------------------------------|
A|----------------------------------------|---------------------------------|
E|----------------------------------------|---------------------------------|

Guitar 2 (Work out your own strumming pattern for the chords once again)

e|----|----|----|--15p14------------------15~----|
B|----|----|----|--------15p0-------12h15--------|
G|-9--|-7--|-9--|-------------12h14--------------|
D|-9--|-7--|-9--|--------------------------------|
A|-7--|-5--|-7--|--------------------------------|
E|----|----|----|--------------------------------|

e|----|----|----|--xxxxxx-xxxxxx---|
B|----|----|----|--xxxxxx-xxxxxx---|
G|-9--|-7--|-9--|--xxxxxx-xxxxxx---| Zac Uses
D|-9--|-7--|-9--|--xxxxxx-xxxxxx---| Some Weird
A|-7--|-5--|-7--|--xxxxxx-xxxxxx---| Effect Here
E|----|----|----|--xxxxxx-xxxxxx---|

e|----|----|----|--15p14-------------19~------|
B|----|----|----|--------15p0--12/17----------|
G|-9--|-7--|-9--|-----------------------------|
D|-9--|-7--|-9--|-----------------------------|
A|-7--|-5--|-7--|-----------------------------|
E|----|----|----|-----------------------------|

e|----|----|----|--15p14------------------15~----|
B|----|----|----|--------15p0-------12h15--------|
G|-9--|-7--|-9--|-------------12h14--------------|
D|-9--|-7--|-9--|--------------------------------|
A|-7--|-5--|-7--|--------------------------------|
E|----|----|----|--------------------------------|

I'm not going to tab out the ending right now, maybe at a later date


************************************

| /   slide up
| \   slide down
| h   hammer-on
| p   pull-off
| ~   vibrato
| +   harmonic
| x   Mute note
| b   Bend
| pb  Pre-bend
| br  Bend release
| pbr Pre-bend release
| brb Bend release bend

************************************





Comments


Popular Dance Gavin Dance tabs & chords
Backwards Pumpking Song Bass Tabs
Open Your Eyes And Look North 2 Bass Tabs
Uneasy Hearts Weigh The Most 2 Bass Tabs
Uneasy Hearts Weigh The Most Chords
Im Down With Brown Town Intro Tabs
Lemon Meringue Tie 1 Tabs
People You Know Tabs
People You Know 1 Tabs
Powder To The People Intro Tabs
Purple Reign Intro Tabs


Song lyrics



↑ Back to top | Tablatures and chords are parodies/interpretations of the original songs. You may use it for private study, scholarship, research or language learning purposes only
© 2014 AZChords.com Contact us | Privacy policy | DMCA | Add/correct tabs | Request tabs | Top 50 tabs