>
 >
Antlion

Antlion Guitar Tabs

Dance Gavin Dance - Antlion chords, tabs, tablatures, lyrics

Guitar lessons | Add/correct | Request | Top 50 tabs Artists:  A B C D E F G H I J K L M N O P Q R S T U V W X Y Z 0-9

Antlion Guitar Tabs – Dance Gavin Dance

CD, Sheet music, Poster

Do you like Antlion? Share with your friends now
Tabs
Dance Gavin Dance
"Antlion"

This song is absolutely phenominal. I hope everything is good.
It's all sounding awesome here lol.
Leave comments on what you think.

Drop D (DADGBE)


Guitar 1

Intro:

-------------|------|
-------------|------|
-------------|------|
-6666-222-444|-<-x8-|
-6666-222-444|------|
-6666-222-444|------|


Chorus:

-------|
-------|
-------|
-2---6-|
-2---6-|
-2---6-|

Verse 2:

----------------------------------|------|
----------------------------------|------|
----------------------------------|------|
-66-66-6\-66-66--66-66-6\-66-66-2~|-<-x2-|
-66-66-6\-66-66--66-66-6\-66-66-2~|------|
-66-66-6\-66-66--66-66-6\-66-66-2~|------|

After the chorus before everything comes back into the intro,
this rhythm is played:

-----------|
-----------|
-----------|
-6666-4444-|
-6666-4444-|
-6666-4444-|

The next part is played just like the intro.
End it on the power chord on the 6th fret.


Guitar 2

Intro:

9---------------------------------9--------------------------------|
--7h0p7-7-9-------------------------7h0p7-7-9----------------------|
------------8-6-8-6-8-6-4-3-4-3----------------8-6-8-6-8-6-4-6-88~-|
--------------------------------4----------------------------------|
-------------------------------------------------------------------|
-------------------------------------------------------------------|

9---------------------------------9---------------------------------|
--7h0p7-7-9-------------------------7h0p7-7-9--------9---------9----|
------------8-6-8-6-8-6-4-3-4-3----------------8-6-8--88-6-8-----8~-|
--------------------------------4-----------------------------------|
--------------------------------------------------------------------|
--------------------------------------------------------------------|

Interlude:

-11-------------11---11---|-------11-------------------|
----9h10p9h10p9----9----9-|----------9h10p9h10p9h10p9~-|
--------------------------|<--x3-----------------------|
--------------------------|----------------------------|
--------------------------|----------------------------|
--------------------------|----------------------------|

"...Stretch yourself"

-7h9-7-66~-----7h9-7-66~--7-6------7h9-7-66~------7h6----4p0---|
----------7-9-----------------7-9-----------7-9-------7------4-|
---------------------------------------------------------------|
---------------------------------------------------------------|
---------------------------------------------------------------|
---------------------------------------------------------------|

-7h9-7-66~-9~-14----14----14----7h9-9-14----14----|
--------------------------------------------------|
-----------------16----16----16----------16----16-|
--------------------------------------------------|
--------------------------------------------------|
--------------------------------------------------|

-7h9-7-66~-7-9-14----14----14----|
---------------------------------|
------------------16----16----16-|
---------------------------------|
---------------------------------|
---------------------------------|
Chorus (x2):

-18\11-11----11---18\11-11----11--------9h11-|------|
----------9-----9----------9-----9-9h12------|------|
---------------------------------------------|-<-x2-|
---------------------------------------------|------|
---------------------------------------------|------|
---------------------------------------------|------|
          T     T          T     T

-14h11-14h11-14p12p11-11-14p11-|
-------------------------------|
-------------------------------|
-------------------------------|
-------------------------------|
-------------------------------|

-11-18p14----18p14----18p14-14-------18p14-14------------9h11-|
----------16-------16----------16-16----------16-16-9h12------|
--------------------------------------------------------------|
--------------------------------------------------------------|
--------------------------------------------------------------|
--------------------------------------------------------------|
           T        T
Verse 2:

"...I've got to be in your car"
I'm not exactly sure about the effects on this part
but I'm pretty positive this is how the part goes.

-------------------14h15p14-14h15p14-14h15p14-14h15p14---|
-11h12p11-11h12p11---------------------------------------|
---------------------------------------------------------|
---------------------------------------------------------|
---------------------------------------------------------|
---------------------------------------------------------|

-------------------11h12p11-11h12p11-11h12p11-11h12p11-|
-11h12p11-11h12p11-------------------------------------|
-------------------------------------------------------|
-------------------------------------------------------|
-------------------------------------------------------|
-------------------------------------------------------|

-------------------14h15p14-14h15p14-14h15p14-14h15p14-------------------11~-|
-11h12p11-11h12p11-------------------------------------11h12p11-11h12p11-12~-|
-----------------------------------------------------------------------------|
-----------------------------------------------------------------------------|
-----------------------------------------------------------------------------|
-----------------------------------------------------------------------------|

Interlude
Chorus

Outro (x4):

-16161616161616161616161616161616161616-18181818181818-191919191919-|
--------------------------------------------------------------------|
--------------------------------------------------------------------|
--------------------------------------------------------------------|
--------------------------------------------------------------------|
--------------------------------------------------------------------|


-16161616161616161616161616161616161616-----------------------------|
----------------------------------------16161616161616-141414141414-|
--------------------------------------------------------------------|
--------------------------------------------------------------------|
--------------------------------------------------------------------|
--------------------------------------------------------------------|

End on the last note you see there.





Comments


Popular Dance Gavin Dance tabs & chords
Don't Tell Dave Bass Tabs
Lemon Meringue Tie 2 Bass Tabs
Me And Zoloft Get Along Just Fine 2 Bass Tabs
Stawberry Swisher Bass Tabs
Burning Down The Nicotine Armoire Tabs
Lemon Meringue Tie 1 Tabs
Lemon Meringue Tie 4 Tabs
Skyhook Tabs
Surprise Im From Cuba Everyone Has One Brain Tabs
The Robot With Human Hair Part 3 Intro Tabs


Song lyrics



↑ Back to top | Tablatures and chords are parodies/interpretations of the original songs. You may use it for private study, scholarship, research or language learning purposes only
© 2014 AZChords.com Contact us | Privacy policy | DMCA | Add/correct tabs | Request tabs | Top 50 tabs