>
 >
And I Told Them I Invented Times New Roman

And I Told Them I Invented Times New Roman Bass Tabs

Dance Gavin Dance - And I Told Them I Invented Times New Roman chords, tabs, tablatures, lyrics

Guitar lessons | Add/correct | Request | Top 50 tabs Artists:  A B C D E F G H I J K L M N O P Q R S T U V W X Y Z 0-9

And I Told Them I Invented Times New Roman Bass Tabs – Dance Gavin Dance

CD, Sheet music, Poster

Do you like And I Told Them I Invented Times New Roman? Share with your friends now
Bass TabsTabs
                  And I Told Them I Invented Times New Roman
                             Dance Gavin Dance

This is exported directly from the gp5 version...i got a few requests for the text 
of the guitar tab, but i thought why not throw in the bass tab, it only makes sense.

Bass
     E  E  E  E  E  E  E  E     E  E  E  E  E  E  E  E
G||--------------------------|--------------------------|
D||--------------------------|--------------------------|
A||--------------------------|--------------------------|
D||--0--0--0--0--0--0--0--0--|--0--0--0--0--0--0--0--0--|


  E  E  E  E  E  E  E  E     E  E  E  E  E  E  E  E
--------------------------|--------------------------|
--------------------------|--------------------------|
--0--0--0--0--0--0--0--0--|--0--0--0--0--0--0--0--0--|
--------------------------|--------------------------|


  E  E  E  E  E  E  E  E     E  E  E  E  E  E  E  E
--------------------------|--------------------------|
--------------------------|--------------------------|
--------------------------|--------------------------|
--3--3--3--3--3--3--3--3--|--3--3--3--3--3--3--3--3--|


  E  E  E  E  E  E  E  E     E  E  E  E  E  E  E  E
--------------------------|--------------------------|
--------------------------|--------------------------|
--5--5--5--5--5--5--5--5--|--5--5--5--5--5--5--5--5--|
--------------------------|--------------------------|


  E  E  E  E  E  E  E  E     E  E  E  E  E  E  E  E
--------------------------|--------------------------|
--------------------------|--------------------------|
--------------------------|--------------------------|
--0--0--0--0--0--0--0--0--|--0--0--0--0--0--0--0--0--|


  E  E  E  E  E  E  E  E     E  E  E  E  E  E  E  E
--------------------------|--------------------------|
--------------------------|--------------------------|
--0--0--0--0--0--0--0--0--|--0--0--0--0--0--0--0--0--|
--------------------------|--------------------------|


  E  E  E  E  E  E  E  E     E  E  E  E  E  E  E  E
--------------------------|--------------------------|
--------------------------|--------------------------|
--------------------------|--------------------------|
--3--3--3--3--3--3--3--3--|--3--3--3--3--3--3--3--3--|


  E  E  E  E  E  E  E  E     E  E  E  E  E  E  E  E     W
--------------------------|--------------------------|-------------------|
--------------------------|--------------------------|-------------------|
--0--0--0--0--0--0--0--0--|--0--0--0--0--0--0--0--0--|-------------------|
--------------------------|--------------------------|-------------------|


  <                                       <
  W                   W                   W                   W
-------------------|-------------------|-------------------|-------------------|
-------------------|-------------------|-------------------|-------------------|
-------------------|-------------------|-------------------|-------------------|
--0----------------|-------------------|--0----------------|-------------------|


  <                                       <
  W                   W                   W
-------------------|-------------------|-------------------|
-------------------|-------------------|-------------------|
-------------------|-------------------|-------------------|
--0----------------|-------------------|--0----------------|


  E  E  E  E  E  E  E  E     E  E  E  E  E  E  E  E
--------------------------|--------------------------|
--3-----0-----------3-----|-----3--0-----------3-----|
--------------------------|--------------------------|
--------------0-----------|--------------0-----------|


  E  E  E  E  E  E  E  E     E  E  E  E  E  E  E  E     W
--------------------------|--------------------------|-------------------|
--3-----0-----------3-----|-----3--0-----------3-----|-------------------|
--------------------------|--------------------------|-------------------|
--------------0-----------|--------------0-----------|-------------------|


  <                                       <
  W                   W                   W
-------------------|-------------------|-------------------|
-------------------|-------------------|-------------------|
-------------------|-------------------|-------------------|
--0----------------|-------------------|--0----------------|


  E  E  E  E  E  E  E  E     E  E  E  E  E  E  E  E
--------------------------|--------------------------|
--3-----0-----------3-----|-----3--0-----------3-----|
--------------------------|--------------------------|
--------------0-----------|--------------0-----------|


  E  E  E  E  E  E  E  E     E  E  E  E  E  E  E  E     W
--------------------------|--------------------------|-------------------|
--3-----0-----------3-----|-----3--0-----------3-----|-------------------|
--------------------------|--------------------------|-------------------|
--------------0-----------|--------------0-----------|-------------------|


  <                                       <
  W                   W                   W
-------------------|-------------------|-------------------|
-------------------|-------------------|-------------------|
-------------------|-------------------|-------------------|
--0----------------|-------------------|--0----------------|


  E  E  E  E  E  E  E  E     E  E  E  E  E  E  E  E
--------------------------|--------------------------|
--------------0-----------|--------------0-----------|
--1--1-----1-----1-----1--|--1--1-----1-----1-----1--|
--------------------------|--------------------------|


  E  E  E  E  E  E  E  E     E  E  E  E  E  E  E  E
--------------------------|--------------------------|
--------------------------|--------------------------|
--3--3-----0--3--3-----0--|--3--3-----0--3--3-----0--|
--------------------------|--------------------------|


  E  E  E  E  E  E  E  E     E  E  E  E  E  E  E  E
--------------------------|--------------------------|
--------------0-----------|--------------0-----------|
--1--1-----1-----1-----1--|--1--1-----1-----1-----1--|
--------------------------|--------------------------|


  E  E  E  E  E  E  E  E     E  E  E  E  E  Q.        E  E  E  E  E  E  E  E
--------------------------|------------------------|--------------------------|
--------------------------|------------------------|--------------0-----------|
--3--3-----0--3--3-----0--|--3--3-----0--3---------|--1--1-----1-----1-----1--|
--------------------------|------------------------|--------------------------|


  E  E  E  E  E  E  E  E     E  E  E  E  E  E  E  E
--------------------------|--------------------------|
--------------0-----------|--------------------------|
--1--1-----1-----1-----1--|--3--3-----0--3--3-----0--|
--------------------------|--------------------------|


  E  E  E  E  E  E  E  E     E  E  E  E  E  E  E  E
--------------------------|--------------------------|
--------------------------|--------------0-----------|
--3--3-----0--3--3-----0--|--1--1-----1-----1-----1--|
--------------------------|--------------------------|


  E  E  E  E  E  E  E  E     E  E  E  E  E  E  E  E
--------------------------|--------------------------|
--------------0-----------|--------------------------|
--1--1-----1-----1-----1--|--3--3-----0--3--3-----0--|
--------------------------|--------------------------|


  E  E  E  E  E  E  E  E     E  Q    E  Q    E  E     E  E  Q    E  E  E  E
--------------------------|------------------------|-------------------------|
--------------------------|--0-------0-------0-----|-----0-------0-----0-----|
--3--3-----0--3-----3-----|------------------------|-------------------------|
--------------------------|------------------------|-------------------------|


  E  Q    E  Q    E  E     E  E  Q    E  E  E  E     E  Q    E  Q    E  E
------------------------|-------------------------|------------------------|
--0-------0-------0-----|-----0-------0-----0-----|--0-------0-------0-----|
------------------------|-------------------------|------------------------|
------------------------|-------------------------|------------------------|


  E  E  Q    E  E  E  E     E  Q    E  Q    E  E     E  E  Q    E  E  E  E
-------------------------|------------------------|-------------------------|
-----0-------0-----0-----|--0-------0-------0-----|-----0-------0-----0-----|
-------------------------|------------------------|-------------------------|
-------------------------|------------------------|-------------------------|


  E  Q    E  Q    E  E     H        E  E  E  E     E  H        E  E  E
------------------------|-----------------------|-----------------------|
--0-------0-------0-----|-----------3--3--3-----|--0--------------0-----|
------------------------|-----------------------|-----------------------|
------------------------|-----------------------|-----------------------|


  H.           E  E     E  E  E  E  E  E  E  E     E  E  E  E  E  E  E  E
---------------------|--------------------------|--------------------------|
---------------0-----|--------------------------|--------------------------|
---------------------|--------------------------|--------------------------|
---------------------|--0--0--0--0--0--0--0--0--|--0--0--0--0--0--0--0--0--|


  E  E  E  E  E  E  E  E     E  E  E  E  E  E  E  E
--------------------------|--------------------------|
--------------------------|--------------------------|
--0--0--0--0--0--0--0--0--|--0--0--0--0--0--0--0--0--|
--------------------------|--------------------------|


  E  E  E  E  E  E  E  E     E  E  E  E  E  E  E  E
--------------------------|--------------------------|
--------------------------|--------------------------|
--------------------------|--------------------------|
--3--3--3--3--3--3--3--3--|--3--3--3--3--3--3--3--3--|


  E  E  E  E  E  E  E  E     E  E  E  E  E  E  E  E
--------------------------|--------------------------|
--------------------------|--------------------------|
--5--5--5--5--5--5--5--5--|--5--5--5--5--5--5--5--5--|
--------------------------|--------------------------|


  E  E  E  E  E  E  E  E     E  E  E  E  E  E  E  E
--------------------------|--------------------------|
--------------------------|--------------------------|
--------------------------|--------------------------|
--0--0--0--0--0--0--0--0--|--0--0--0--0--0--0--0--0--|


  E  E  E  E  E  E  E  E     E  E  E  E  E  E  E  E
--------------------------|--------------------------|
--------------------------|--------------------------|
--0--0--0--0--0--0--0--0--|--0--0--0--0--0--0--0--0--|
--------------------------|--------------------------|


  E  E  E  E  E  E  E  E     E  E  E  E  E  E  E  E
--------------------------|--------------------------|
--------------------------|--------------------------|
--------------------------|--------------------------|
--3--3--3--3--3--3--3--3--|--3--3--3--3--3--3--3--3--|


  E  E  E  E  E  E  E  E     E  E  E  E  E  E  E  E
--------------------------|--------------------------|
--------------------------|--------------------------|
--0--0--0--0--0--0--0--0--|--0--0--0--0--0--0--0--0--|
--------------------------|--------------------------|


  E  E  E  E  E  E  E  E     E  E  E  E  E  E  E  E
--------------------------|--------------------------|
--------------------------|--------------------------|
--1--1--1--1--1--1--1--1--|--1--1--1--1--1--1--1--1--|
--------------------------|--------------------------|


  E  E  E  E  E  E  E  E     E  E  E  E  E  E  E  E
--------------------------|--------------------------|
--------------------------|--------------------------|
--0--0--0--0--0--0--0--0--|--0--0--0--0--0--0--0--0--|
--------------------------|--------------------------|


  E  E  E  E  E  E  E  E     E  E  E  E  E  E  E  E
--------------------------|--------------------------|
--------------------------|--------------------------|
--------------------------|--------------------------|
--5--5--5--5--5--5--5--5--|--5--5--5--5--5--5--5--5--|


  E  E  E  E  E  E  E  E     E  E  E  E  H           E  E  E  E  E  E  E  E
--------------------------|-----------------------|--------------------------|
--------------------------|-----------------------|--------------------------|
--------------------------|-----------------------|--1--1--1--1--1--1--1--1--|
--3--3--3--3--3--3--3--3--|--3--3--3--3-----------|--------------------------|


  E  E  E  E  E  E  E  E     E  E  E  E  E  E  E  E
--------------------------|--------------------------|
--------------------------|--------------------------|
--1--1--1--1--1--1--1--1--|--0--0--0--0--0--0--0--0--|
--------------------------|--------------------------|


  E  E  E  E  E  E  E  E     E  E  E  E  E  E  E  E
--------------------------|--------------------------|
--------------------------|--------------------------|
--0--0--0--0--0--0--0--0--|--------------------------|
--------------------------|--5--5--5--5--5--5--5--5--|


  E  E  E  E  E  E  E  E     E  E  E  E  E  E  E  E     E  E  E  E  H
--------------------------|--------------------------|-----------------------|
--------------------------|--------------------------|-----------------------|
--------------------------|--------------------------|-----------------------|
--5--5--5--5--5--5--5--5--|--3--3--3--3--3--3--3--3--|--3-----3--3-----------|


  E  E  E  E  E  E  E  E     E  E  E  E  E  E  E  E
--------------------------|--------------------------|
--------------------------|--------------------------|
--1--1--1--1--1--1--1--1--|--1--1--1--1--1--1--1--1--|
--------------------------|--------------------------|


  E  E  E  E  E  E  E  E     E  E  E  E  E  E  E  E
--------------------------|--------------------------|
--------------------------|--------------------------|
--0--0--0--0--0--0--0--0--|--0--0--0--0--0--0--0--0--|
--------------------------|--------------------------|


  E  E  E  E  E  E  E  E     E  E  E  E  E  E  E  E
--------------------------|--------------------------|
--------------------------|--------------------------|
--------------------------|--------------------------|
--5--5--5--5--5--5--5--5--|--5--5--5--5--5--5--5--5--|


  E  E  E  E  E  E  E  E     E  E  E  E  E  E  E  E
--------------------------|--------------------------|
--------------------------|--------------------------|
--------------------------|--------------------------|
--3--3--3--3--3--3--3--3--|--3--3--3--3--3--3--3--3--|


  E  E  E  E  E  E  E  E     E  E  E  E  E  E  E  E
--------------------------|--------------------------|
--------------------------|--------------------------|
--1--1--1--1--1--1--1--1--|--1--1--1--1--1--1--1--1--|
--------------------------|--------------------------|


  E  E  E  E  E  E  E  E     E  E  E  E  E  E  E  E
--------------------------|--------------------------|
--------------------------|--------------------------|
--0--0--0--0--0--0--0--0--|--0--0--0--0--0--0--0--0--|
--------------------------|--------------------------|


  E  E  E  E  E  E  E  E     E  E  E  E  E  E  E  E
--------------------------|--------------------------|
--------------------------|--------------------------|
--------------------------|--------------------------|
--5--5--5--5--5--5--5--5--|--5--5--5--5--5--5--5--5--|


  E  E  E  E  E  E  E  E     E  E  E  E  E  E  E  E     E  H.           E
--------------------------|--------------------------|---------------------|
--------------------------|--------------------------|---------------------|
--------------------------|--------------------------|---------------------|
--3--3--3--3--3--3--3--3--|--3--3--3--3--3--3--3--3--|--3------------------|


  W                   W                   W
-------------------|-------------------|-------------------|
-------------------|-------------------|-------------------|
-------------------|-------------------|-------------------|
-------------------|-------------------|-------------------|


  Q    Q    Q    Q       Q    Q    Q    Q       Q    Q    Q    Q
----------------------|----------------------|----------------------|
----------------------|----------------------|----------------------|
--1----1----1----1----|--3----3----3----3----|--5----5----5----5----|
----------------------|----------------------|----------------------|


  Q    Q    Q    Q       Q    Q    Q    Q       Q    Q    Q    Q
----------------------|----------------------|----------------------|
----------------------|----------------------|----------------------|
--0----0----0----0----|--1----1----1----1----|--3----3----3----3----|
----------------------|----------------------|----------------------|


  Q    Q    Q    Q       Q    Q    Q    Q       E  E  E  E  E  E  E  E
----------------------|----------------------|--------------------------|
----------------------|----------------------|--------------------------|
--5----5----5----5----|--0----0----0----0----|--1--1--1--1--1--1--1--1--|
----------------------|----------------------|--------------------------|


  E  E  E  E  E  E  E  E     E  E  E  E  E  E  E  E
--------------------------|--------------------------|
--------------------------|--------------------------|
--3--3--3--3--3--3--3--3--|--5--5--5--5--5--5--5--5--|
--------------------------|--------------------------|


  E  E  E  E  E  E  E  E     E  E  E  E  E  E  E  E
--------------------------|--------------------------|
--------------------------|--------------------------|
--0--0--0--0--0--0--0--0--|--1--1--1--1--1--1--1--1--|
--------------------------|--------------------------|


  E  E  E  E  E  E  E  E     E  E  E  E  E  E  E  E
--------------------------|--------------------------|
--------------------------|--------------------------|
--3--3--3--3--3--3--3--3--|--5--5--5--5--5--5--5--5--|
--------------------------|--------------------------|


  E  E  E  E  E  E  E  E     S S S S S S S S S S S S S S S S
--------------------------|----------------------------------|
--------------------------|----------------------------------|
--0--0--0--0--0--0--0--0--|--1-1-1-1-1-1-1-1-1-1-1-1-1-1-1-1-|
--------------------------|----------------------------------|


  S S S S S S S S S S S S S S S S    S S S S S S S S S S S S S S S S
----------------------------------|----------------------------------|
----------------------------------|----------------------------------|
--3-3-3-3-3-3-3-3-3-3-3-3-3-3-3-3-|--5-5-5-5-5-5-5-5-5-5-5-5-5-5-5-5-|
----------------------------------|----------------------------------|


  S S S S S S S S S S S S S S S S    S S S S S S S S S S S S S S S S
----------------------------------|----------------------------------|
----------------------------------|----------------------------------|
--0-0-0-0-0-0-0-0-0-0-0-0-0-0-0-0-|--1-1-1-1-1-1-1-1-1-1-1-1-1-1-1-1-|
----------------------------------|----------------------------------|


  S S S S S S S S S S S S S S S S    S S S S S S S S S S S S S S S S
----------------------------------|----------------------------------|
----------------------------------|----------------------------------|
--3-3-3-3-3-3-3-3-3-3-3-3-3-3-3-3-|--5-5-5-5-5-5-5-5-5-5-5-5-5-5-5-5-|
----------------------------------|----------------------------------|


  S S S S S S S S S S S S S S S S    W                   W
----------------------------------|-------------------|-------------------|
----------------------------------|-------------------|-------------------|
--5-5-5-5-5-5-5-5-5-5-5-5-5-5-5-5-|-------------------|-------------------|
----------------------------------|-------------------|-------------------|


  H           E  E  E  E  E  E  E  E     E  E  E  E  E  E  E  E
-----------|--------------------------|--------------------------|
-----------|--------------------------|--------------------------|
-----------|--1--1--1--1--1--1--1--1--|--1--1--1--1--1--1--1--1--|
-----------|--------------------------|--------------------------|


  E  E  E  E  E  E  E  E     E  E  E  E  E  E  E  E
--------------------------|--------------------------|
--------------------------|--------------------------|
--------------------------|--------------------------|
--5--5--5--5--5--5--5--5--|--5--5--5--5--5--5--5--5--|


  E  E  E  E  E  E  E  E     E  E  E  E  E  E  E  E     Q.     Q.     Q
--------------------------|--------------------------|---------------------|
--------------------------|--------------------------|---------------------|
--1--1--1--1--1--1--1--1--|--1--1--1--1--1--1--1--1--|---------------------|
--------------------------|--------------------------|--3------3------3----|


  H        Q    Q       E  E  E  E  E  E  E  E     E  E  E  E  E  E  E  E
---------------------|--------------------------|--------------------------|
---------------------|--------------------------|--------------------------|
---------------------|--1--1--1--1--1--1--1--1--|--1--1--1--1--1--1--1--1--|
--L--------3----3----|--------------------------|--------------------------|


  E  E  E  E  E  E  E  E     E  E  E  E  E  E  E  E
--------------------------|--------------------------|
--------------------------|--------------------------|
--------------------------|--------------------------|
--5--5--5--5--5--5--5--5--|--5--5--5--5--5--5--5--5--|


  E  E  E  E  E  E  E  E     E  E  E  E  E  E  E  E
--------------------------|--------------------------|
--------------------------|--------------------------|
--1--1--1--1--1--1--1--1--|--1--1--1--1--1--1--1--1--|
--------------------------|--------------------------|


  E  E  E  E  E  E  E  E     E  E  E  E  E  E  E  E
--------------------------|--------------------------|
--------------------------|--------------------------|
--------------------------|--------------------------|
--3--3--3--3--3--3--3--3--|--3--3--3--3--6--6--6--6--|


  E  E  E  E  E  E  E  E     E  E  E  E  E  E  E  E
--------------------------|--------------------------|
--------------------------|--------------------------|
--1--1--1--1--1--1--1--1--|--1--1--1--1--0--0--0--0--|
--------------------------|--------------------------|


  E  E  E  E  E  E  E  E     E  E  E  E  E  E  E  E
--------------------------|--------------------------|
--------------------------|--------------------------|
--------------------------|-----------------0--0--0--|
--5--5--5--5--5--5--5--5--|--5--5--5--5--5-----------|


  E  E  E  E  E  E  E  E     E  E  E  E  E  E  E  E
--------------------------|--------------------------|
--------------------------|--------------------------|
--1--1--1--1--1--1--1--1--|--1--1--1--1--------------|
--------------------------|--------------2--2--2--2--|


  E  E  E  E  E  E  E  E     E  E  E  E  E  E  E  E
--------------------------|--------------------------|
--------------------------|--------------------------|
--------------------------|--------------------------|
--3--3--3--3--3--3--3--3--|--3--3--3--3--6--6--6--6--|


  E  E  E  E  E  E  E  E     E  E  E  E  E  E  E  E
--------------------------|--------------------------|
--------------------------|--------------------------|
--1--1--1--1--1--1--1--1--|--1--1--1--1--0--0--0--0--|
--------------------------|--------------------------|


  E  E  E  E  E  E  E  E     E  E  E  E  E  E  E  E
--------------------------|--------------------------|
--------------------------|--------------------------|
--------------------------|-----------------0--0--0--|
--5--5--5--5--5--5--5--5--|--5--5--5--5--5-----------|


  E  E  E  E  E  E  E  E     E  E  E  E  E  E  E  E     Q.     Q.     Q
--------------------------|--------------------------|---------------------|
--------------------------|--------------------------|---------------------|
--1--1--1--1--1--1--1--1--|--1--1--1--1--------------|---------------------|
--------------------------|--------------2--2--2--2--|--3------3------3----|


  E  Q.     Q    Q       W                   W
----------------------|-------------------|-------------------|
----------------------|-------------------|-------------------|
----------------------|-------------------|-------------------|
--L--3------3----3----|--0----------------|--L----------------|


  W                   W                   S S S S E  E  S S S S E  E
-------------------|-------------------|------------------------------|
-------------------|-------------------|------------------------------|
-------------------|-------------------|------------------------------|
--L----------------|--L----------------|--0-0-0-0-0-----0-0-0-0-0-----|


  E  E  E  H        E     S S S S E  E  S S S S E  E     E  E  E  H        E
-----------------------|------------------------------|-----------------------|
-----------------------|------------------------------|-----------------------|
-----------------------|------------------------------|-----------------------|
-----0--0--------------|--0-0-0-0-0-----0-0-0-0-0-----|-----0--0--------------|


  S S S S E  E  S S S S E  E     E  E  E  H        E
------------------------------|-----------------------|
------------------------------|-----------------------|
------------------------------|-----------------------|
--0-0-0-0-0-----0-0-0-0-0-----|-----0--0--------------|


  S S S S E  E  S S S S E  E     W
------------------------------|-------------------|
------------------------------|-------------------|
------------------------------|-------------------|
--0-0-0-0-0-----0-0-0-0-0-----|-------------------|


  S S S S E  E  S S S S E  E     E  E  E  H        E
------------------------------|-----------------------|
------------------------------|-----------------------|
------------------------------|-----------------------|
--0-0-0-0-0-----0-0-0-0-0-----|-----0--0--------------|


  S S S S E  E  S S S S E  E     E  E  E  H        E
------------------------------|-----------------------|
------------------------------|-----------------------|
------------------------------|-----------------------|
--0-0-0-0-0-----0-0-0-0-0-----|-----0--0--------------|


  S S S S E  E  S S S S E  E     E  E  E  H        E
------------------------------|-----------------------|
------------------------------|-----------------------|
------------------------------|-----------------------|
--0-0-0-0-0-----0-0-0-0-0-----|-----0--0--------------|


  S S S S E  E  S S S S E  E     E  E  E  H        E
------------------------------|-----------------------|
------------------------------|-----------------------|
------------------------------|-----------------------|
--0-0-0-0-0-----0-0-0-0-0-----|-----0--0--------------|


  S S S S S S S S H           W                   W
---------------------------|-------------------|-------------------||
---------------------------|-------------------|-------------------||
---------------------------|-------------------|-------------------||
--0-0-0-0-0-0-0-0----------|-------------------|-------------------||


Duration Legend
---------------
W - whole
H - half
Q - quarter
E - 8th
S - 16th
T - 32nd
X - 64th
. - note dotted
|-n-|  - n-tuplets


Tablature Legend
----------------
L - tied note
x - dead note
g - grace note
(n) - ghost note
> - accentuded note
NH - natural harmonic
AH - artificial harmonic
TH - tapped harmonic
SH - semi harmonic
PH - pitch harmonic
h - hammer on
p - pull off
b - bend
br - bendRelease
pb - preBend
pbr - preBendRelease
brb - bendReleaseBend
\n/ - tremolo bar dip
\n - tremolo bar dive
-/n - tremolo bar Release up
/n\ - tremolo bar inverted dip
/n - tremolo bar return
-\n - tremolo bar Release down
S - shift slide
s - legato slide
/ -  slide into from below or out of upwards
\ -  slide into from above or out of downwards
~ - vibrato
W - wide vibrato
tr - trill
TP - tremolo picking
T - tapping
S - slap
P - pop
< - fade in
^ - brush up
v - brush down





Comments


Popular Dance Gavin Dance tabs & chords
Don't Tell Dave Bass Tabs
Happiness Bass Tabs
Me And Zoloft Get Along Just Fine 3 Bass Tabs
Strawberry Andre Bass Tabs
Alex English Intro 1 Tabs
Attack Of The Dashing Young And Bold Tabs
Burning Down The Nicotine Armoire Tabs
Lemon Meringue Tie 1 Tabs
People You Know 1 Tabs
The Robot Vs The Heroin Battle Of Vietnam Tabs


Song lyrics



↑ Back to top | Tablatures and chords are parodies/interpretations of the original songs. You may use it for private study, scholarship, research or language learning purposes only
© 2014 AZChords.com Contact us | Privacy policy | DMCA | Add/correct tabs | Request tabs | Top 50 tabs