>
 >
Soul Bleed

Soul Bleed Guitar Tabs

Damageplan - Soul Bleed chords, tabs, tablatures, lyrics

Guitar lessons | Add/correct | Request | Top 50 tabs Artists:  A B C D E F G H I J K L M N O P Q R S T U V W X Y Z 0-9

Soul Bleed Guitar Tabs – Damageplan

CD, Sheet music, Poster

Do you like Soul Bleed? Share with your friends now
TabsTabs v2
Band- Damageplan
Song- Soul Bleed
RIP DIME!!

All gtrs. in Drop D, down 2 1/2 steps: A,E,A,D,F#,B
Acoustic

Moderately Slow

Intro - 0:01
[--------------------|------------------|
[--------------------|------------------|
[---2--2p0---0-------|-----0---0-2------|
[---3------3---3-0---|---3---3----------|   x4
[---5----------------|------------------|
[---0--------------0-|------------------|



Rhythm Fig.1 - 0:17
[-----------------|---------------------|
[-----------------|---------------------|
[----------2----2-|----1---1--1---------|
[------0-3--------|--0---0--------------|   x4
[----0------------|---------------------|
[--0--------------|---------------------|



Verse - Gtr. 1 - 0:33
[--0----0-------------|-------0-0--------|--0------0-0--------|-------0-0--------|
[--3-------3----------|-----3-----3------|--3----------3------|-----3-----3------|
[--2------------2-----|-------------2----|--2----2-------2----|-------------2----|
[--0------------------|---0-----------0--|--0-----------------|---0-----------0--|
[--0---------------1--|------------------|--0--------------1--|------------------|
[--0------------------|------------------|--0-----------------|------------------|

 Gtr. 2                                 
[---------------------|----10----10------|------10----10------|----10----10------|
[---------------------|--10--1010--10----|----10--10----1010--|--10--1010--10----|
[---------------------|------------------|--------------------|------------------|
[---------------------|---------------0--|--0--------0--------|---------------0--|
[---------------------|------------------|--------------------|------------------|
[---------------------|------------------|--------------------|------------------|
 
 Gtr. 1
[--0------0-0--------|-------0-0---------|--0------0-0--------|-------0-0--------|
[--3----------3------|-----3-----3-------|--3----------3------|-----3-----3------|
[--2----2-------2----|-------------2-----|--2----2-------2----|-------------2-0--|
[--0-----------------|---0-----------0---|--0-----------------|---0--------------|
[--0--------------1--|-------------------|--0--------------1--|------------------|
[--0-----------------|-------------------|--0-----------------|------------------|

Gtr. 2
[------10----10------|----10----10------|-------10----10------|----10----10------|
[----10--10----1010--|--10--1010--10----|-----10--10----1010--|--10--1010--10----|
[--------------------|------------------|---------------------|------------------|
[--0-------0---------|---------------0--|---0-------0---------|---------------0--|
[--------------------|------------------|---------------------|------------------|
[--------------------|------------------|---------------------|------------------|



Rhythm Fig. 1  - 0:50
[-----------------|---------------------|
[-----------------|---------------------|
[----------2----2-|----1---1--1---------|
[------0-3--------|--0---0--------------|   x4
[----0------------|---------------------|
[--0--------------|---------------------|



Pre-Chorus - 1:06 - Listen to song for strumming patterns
  (F)          (G)	
[--1--]	[--3--]
[--1--]	[--3--]
[--2--]	[--4--]	   
[--3--]	[--5--]  x2
[--x--]	[--x--]
[--3--]	[--5--]

 "Caught somewhere between..."


Chorus - 1:23
 (Dm)        Dm(Maj7)     (Dm7)         (Bb7)       (C#7)
[--5--]	[--5--]	[--5--]	[--1--]	[--4--]
[--6--]	[--6--]	[--6--]	[--3--]	[--6--]
[--7--]	[--6--]	[--5--]	[--1--]	[--4--]
[--7--]	[--7--]	[--7--]	[--3--]	[--6--]  
[--5--]	[--5--]	[--5--]	[--1--]	[--4--]
[--0--]	[--0--]	[--0--]	[--x--]	[--x--]

 "Come and Look inside..."
 "Bind my idle hands..."

 (Dm)       Dm(Maj7)       (Dm7)       (Bb7)         (A7)
[--5--]	[--5--]	[--5--]	[--1--]	[--0--]
[--6--]	[--6--]	[--6--]	[--3--]	[--2--]
[--7--]	[--6--]	[--5--]	[--1--]	[--0--]
[--7--]	[--7--]	[--7--]	[--3--]	[--2--]  x2
[--5--]	[--5--]	[--5--]	[--1--]	[--0--]
[--0--]	[--0--]	[--0--]	[--x--]	[--x--]
 
 "And if you run and hide..."
 "Drown in emptiness..."


Interlude - 1:56 
[--------------------|------------------|-------------------|
[--------------------|------------------|-------------------|
[---2--2p0---0-------|-----0---0-2------|--2--2p0---0-------|
[---3------3---3-0---|---3---3----------|--3------3---3-0---|
[---5----------------|------------------|--5----------------|
[---0--------------0-|------------------|--0--------------0-|



 Verse  - 2:04
[--0----0-------------|-------0-0--------|--0------0-0--------|-------0-0--------|
[--3-------3----------|-----3-----3------|--3----------3------|-----3-----3------|
[--2------------2-----|-------------2----|--2----2-------2----|-------------2----|
[--0------------------|---0-----------0--|--0-----------------|---0-----------0--|
[--0---------------1--|------------------|--0--------------1--|------------------|
[--0------------------|------------------|--0-----------------|------------------|

 Gtr. 2                                 
[---------------------|----10----10------|------10----10------|----10----10------|
[---------------------|--10--1010--10----|----10--10----1010--|--10--1010--10----|
[---------------------|------------------|--------------------|------------------|
[---------------------|---------------0--|--0--------0--------|---------------0--|
[---------------------|------------------|--------------------|------------------|
[---------------------|------------------|--------------------|------------------|
 
 Gtr. 1
[--0------0-0--------|-------0-0---------|--0------0-0--------|-------0-0--------|
[--3----------3------|-----3-----3-------|--3----------3------|-----3-----3------|
[--2----2-------2----|-------------2-----|--2----2-------2----|-------------2-0--|
[--0-----------------|---0-----------0---|--0-----------------|---0--------------|
[--0--------------1--|-------------------|--0--------------1--|------------------|
[--0-----------------|-------------------|--0-----------------|------------------|

Gtr. 2
[------10----10------|----10----10------|-------10----10------|----10----10------|
[----10--10----1010--|--10--1010--10----|-----10--10----1010--|--10--1010--10----|
[--------------------|------------------|---------------------|------------------|
[--0-------0---------|---------------0--|---0-------0---------|---------------0--|
[--------------------|------------------|---------------------|------------------|
[--------------------|------------------|---------------------|------------------|



Rhythm Fig. 1  - 2:21
[-----------------|---------------------|
[-----------------|---------------------|
[----------2----2-|----1---1--1---------|
[------0-3--------|--0---0--------------|   x4
[----0------------|---------------------|
[--0--------------|---------------------|



Pre-Chorus - 2:37 - Listen to song for strumming patterns.
  (F)         (G)	
[--1--]	[--3--]
[--1--]	[--3--]
[--2--]	[--4--]  x2
[--3--]	[--5--]
[--x--]	[--x--]
[--3--]	[--5--]

 "Caught somewhere between..."


Chorus - 2:54
 (Dm)        Dm(Maj7)     (Dm7)        (Bb7)        (C#7)
[--5--]	[--5--]	[--5--]	[--1--]	[--4--]
[--6--]	[--6--]	[--6--]	[--3--]	[--6--]
[--7--]	[--6--]	[--5--]	[--1--]	[--4--]
[--7--]	[--7--]	[--7--]	[--3--]	[--6--]  
[--5--]	[--5--]	[--5--]	[--1--]	[--4--]
[--0--]	[--0--]	[--0--]	[--x--]	[--x--]

 "Come and Look inside..."
 "Bind my idle hands..."

 (Dm)        Dm(Maj7)     (Dm7)        (Bb7)        (A7)
[--5--]	[--5--]	[--5--]	[--1--]	[--0--]
[--6--]	[--6--]	[--6--]	[--3--]	[--2--]
[--7--]	[--6--]	[--5--]	[--1--]	[--0--]
[--7--]	[--7--]	[--7--]	[--3--]	[--2--]  x2
[--5--]	[--5--]	[--5--]	[--1--]	[--0--]
[--0--]	[--0--]	[--0--]	[--x--]	[--x--]
 
 "And if you run and hide..."
 "Drown in emptiness..."



SOLO - 3:27 Coming Soon



Chorus - 4:00
 (Dm)        Dm(Maj7)     (Dm7)        (Bb7)        (C#7)
[--5--]	[--5--]	[--5--]	[--1--]	[--4--]
[--6--]	[--6--]	[--6--]	[--3--]	[--6--]
[--7--]	[--6--]	[--5--]	[--1--]	[--4--]
[--7--]	[--7--]	[--7--]	[--3--]	[--6--]  
[--5--]	[--5--]	[--5--]	[--1--]	[--4--]
[--0--]	[--0--]	[--0--]	[--x--]	[--x--]

 "Come and Look inside..."
 "Bind my idle hands..."

 (Dm)        Dm(Maj7)     (Dm7)        (Bb7)         (A7)
[--5--]	[--5--]	[--5--]	[--1--]	[--0--]
[--6--]	[--6--]	[--6--]	[--3--]	[--2--]
[--7--]	[--6--]	[--5--]	[--1--]	[--0--]
[--7--]	[--7--]	[--7--]	[--3--]	[--2--]  x2
[--5--]	[--5--]	[--5--]	[--1--]	[--0--]
[--0--]	[--0--]	[--0--]	[--x--]	[--x--]
 
 "And if you run and hide..."
 "Drown in emptiness..."



End Chorus - 4:32
 (Dm)       Dm(Maj7)      (Dm7)        (Bb7)        (C#7)
[--5--]	[--5--]	[--5--]	[--1--]	[--4--]
[--6--]	[--6--]	[--6--]	[--3--]	[--6--]
[--7--]	[--6--]	[--5--]	[--1--]	[--4--]
[--7--]	[--7--]	[--7--]	[--3--]	[--6--]  
[--5--]	[--5--]	[--5--]	[--1--]	[--4--]
[--0--]	[--0--]	[--0--]	[--x--]	[--x--]

 "My soul is left to bleed."

 (Dm)       Dm(Maj7)      (Dm7)        (Bb7)         (A7)
[--5--]	[--5--]	[--5--]	[--1--]	[--0--]
[--6--]	[--6--]	[--6--]	[--3--]	[--2--]
[--7--]	[--6--]	[--5--]	[--1--]	[--0--]
[--7--]	[--7--]	[--7--]	[--3--]	[--2--]  x1
[--5--]	[--5--]	[--5--]	[--1--]	[--0--]
[--0--]	[--0--]	[--0--]	[--x--]	[--x--]

 "...Soul is left to bleed."



Outro - 4:48
[---------------------|-----------------|
[---------------------|-----------------|
[---2--2p0---0--------|----0---0-2------|   x3
[---3------3---3-0----|--3---3----------|   
[---5-----------------|-----------------|
[---0--------------0--|-----------------|

then
[-------------------0--|-------------|
[-------------------0--|-------------|
[---2--2p0---0------0--|-------------|
[---3------3---3-0--0--|-------------|   
[---5---------------0--|-------------|
[---0---------------0--|-------------|

Elec. /Gtr. 2
[-------------------5br--5br--5br----|
[------------------------------------|
[------------------------------------|
[------------------------------------|
[------------------------------------|
[------------------------------------|





Comments


Popular Damageplan tabs & chords
Crawl Bass Tabs
Blink Of An Eye Tabs
Blunt Force Trauma Tabs
Breathing New Life 1 Tabs
Breathing New Life 2 Tabs
Caged In A Rage Tabs
Explode Tabs
Explode 1 Tabs
Fuck You Tabs
Wake Up 1 Tabs


Song lyrics



↑ Back to top | Tablatures and chords are parodies/interpretations of the original songs. You may use it for private study, scholarship, research or language learning purposes only
© 2014 AZChords.com Contact us | Privacy policy | DMCA | Add/correct tabs | Request tabs | Top 50 tabs