» » »

Daft Punk, Digital Love Tabs (ver.2)

Artists:  A B C D E F G H I J K L M N O P Q R S T U V W X Y Z # 

Digital Love Tabs (ver.2)

Daft Punk Tabs
 Rating:
4/5 (5 votes)
Digital Love lessons Tabs too difficult? Try these video lessons and learn fast
                Digital Love - Daft Punk (solo)

this proved to be a difficult tab to do, if there are any alterations needed tell me.

obviously advanced - expert needed to be able to play:

4/4

e ||----------------|----------------|----------------|----------------|
B ||----------------|----------------|------------17b-|---17=----------|
G ||----------------|-------s16p14=--|----------------|----------------|
D ||--------s16p14=-|----------------|----------16----|----------------|
A ||--12=-----------|----------------|----------------|----------------|
E ||----------------|----------------|----------------|----------------|


|--17-16-17-14-17--17--17--17---17---|
|----------------17--15--14----------|
|-----------------------------16--14=|
|------------------------------------|
|------------------------------------|
|------------------------------------|


|---------------------------------------------16-19-21-22b--|
|-------------------------15-17-19-17-19-21-22--------------|
|--16-18-16-18-19-18-19-21----------------------------------|
|-----------------------------------------------------------|
|-----------------------------------------------------------|
|-----------------------------------------------------------|


|-----------------------------------|
|-----------------------------------|
|-------------------------9b--------|
|--s19--7h9h11-7h9h11-7h9------12=--|
|-----------------------------------|
|-----------------------------------|


|------------------------------------|
|--10b------10b-10b-10b-10b-10b-10b--|
|------------------------------------|
|------------------------------------|
|------------------------------------|
|------------------------------------|


|-----------------------7b---------7b--5p2-5p2-s19--19b--17-|
|--5h7h10-5h7h10-5h7h10-------------------------------------|
|-----------------------------------------------------------|
|-----------------------------------------------------------|
|-----------------------------------------------------------|
|-----------------------------------------------------------|


|------------------------------------------|
|------------------------------------------|
|------------------------------------------|
|------------------------------------------|
|--9s--0-2h4--7-9--7------0--0-------------|
|---------------------0-2------7-5-2--5p2--|


|-------------------------------------------|
|-------------------------------------------|
|------------------------------------2h4h6--|
|-------------------------------4h6h7-------|
|--------------------------5h7h9------------|
|--2h4h5-4h5h7-5h7h9-7h9h10-----------------|


|----------------------------------------------------|
|------------------------------9h10h12-10h12h14h15b--|
|--6p4h6h7-6h7h9-7h9h11p9h11h13----------------------|
|----------------------------------------------------|
|----------------------------------------------------|
|----------------------------------------------------|


|--12-0-5-7-0-5--7-0-5-9-0-7--7-0-5-9-0-7--7-0-5-9-0-7--|
|-------------------------------------------------------|
|-------------------------------------------------------|
|-------------------------------------------------------|
|-------------------------------------------------------|
|-------------------------------------------------------|


|--7-0-5-9-0-7--7-0-5-9-0-7--7-0-5-9-0-7-7b--|
|--------------------------------------------|
|--------------------------------------------|
|--------------------------------------------|
|--------------------------------------------|
|--------------------------------------------|


|------------------------------------------------------------------||
|------------------------------------------------------------------||
|-------7---7---9b--9=-------7--7--6--9b--9--6-----4-6-7-6-4-------||
|--7--9---9---9--------------------------------9-7-----------7--7=-||
|------------------------------------------------------------------||
|------------------------------------------------------------------||



Key:

=     let note ring
b     bend from note to note
s     slide from note to note
h     hammer on
p     pull off


guitarpr0o0 - aka nathaniel.
            
Submit corrections

comments powered by Disqus
↑ Back to top | Daft Punk Tabs for Digital Love. Lyrics for acoustic guitar and electric guitar. Tablatures and chords are parodies/interpretations of the original songs. You may use it for private study, scholarship, research or language learning purposes only