» » »

Daft Punk, Digital Love Tabs (ver.3)

Artists:  A B C D E F G H I J K L M N O P Q R S T U V W X Y Z # 

Digital Love Tabs (ver.3)

Daft Punk Tabs
Rating:
0/5 (0 votes)
Digital Love lessons Tabs too difficult? Try these video lessons and learn fast
                -------------------------------------------------------------------------------
                            Digital Love - Daft Punk
-------------------------------------------------------------------------------



  Bm7                    A/C#   Dmaj7   Esus4

E-|------------------2------0---|(0)-----------------------------|
B-|3---3------2------2------0---|(0)-------------0h2-2h3---------|
G-|2---2------2------2------2---|(2)-----2---------------2h4-2---|
D-|0---0------2------0------2---|(2)-2h4-------------------------|
A-|2---2------4-----------------|--------------------------------|
E-|-----------------------------|--------------------------------|
  |                                                                 |
  |                                                                 |
E-|--------------------------------|----------------4h5-5-5-4p2-0---|
B-|--------------------------------|--------3-----------------------|
G-|--------------------------------|----2h4-------------------------|
D-|--------------------------------|--------------------------------|
A-|--------------------------------|--------------------------------|
E-|--------------------------------|--------------------------------|


   D                                      C#                                        F#m   C#m  

E-|--------------------------------|5---5---x-----------------------|
B-|7---7---x-------6---6---x-------|2---2---x-------5---x-5---x-5-x-|
G-|7---7---x-------6---6---x-------|2---2---x-------6---x-6---x-6-x-|
D-|7---7---x-------6---6---x-------|4---4---x-------6---x-6---x-6-x-|
A-|5---5---x-------4---4---x-------|----------------4---x-4---x-4-x-|
E-|--------------------------------|--------------------------------|
            

comments powered by Disqus
↑ Back to top | Daft Punk Tabs for Digital Love. Lyrics for acoustic guitar and electric guitar. Tablatures and chords are parodies/interpretations of the original songs. You may use it for private study, scholarship, research or language learning purposes only