» » »

Daft Punk, Digital Love Bass tabs (ver.3)

Artists:  A B C D E F G H I J K L M N O P Q R S T U V W X Y Z # 

Digital Love Bass tabs (ver.3)

Daft Punk Tabs
 Rating:
3.7/5 (6 votes)
Digital Love lessons Tabs too difficult? Try these video lessons and learn fast
                Oki!!
Tune E,A,D,G

E|----------------------------------------------|
A|--4--0----------------------------------------|
D|00-4------------------------------------------|
G|------ up until "Oh, I don't know what to do--|

Mix it up with a deeper E

E|-----0-|
A|--4----|
D|00-4---|
G|-------|

Chorus

E|------------|
A|--44--2h0h2-|
D|00--44------|
G|------------|

First Piano Bit (Don't have to play this)

E|-----------------|
A|555-4-5----------|
D|-------7-9-9-7-9-|
G|----------7------|

There we go, cheers easy =P
            
Submit corrections

comments powered by Disqus
↑ Back to top | Daft Punk Bass for Digital Love. Lyrics for acoustic guitar and electric guitar. Tablatures and chords are parodies/interpretations of the original songs. You may use it for private study, scholarship, research or language learning purposes only