» » »

Harder Better Faster Stronger Bass tabs (ver.1)

Artists:  A B C D E F G H I J K L M N O P Q R S T U V W X Y Z # 

Harder Better Faster Stronger Bass tabs (ver.1)

Daft Punk
Rating:
0/5 (0 votes)

Hard to play? Try these video lessons and learn fast.
                -----------------------------------------------------------------
-----------------------------------------------------------------


Tuning: EADG

Intro: (0:18)
G|---------------------------------------------------------------|
D|--------------------------------------------------2h4----------|
A|--7-9---7-------------9-----7-----5-----4-----2------2---------|
E|------9--------------------------------------------------------|

G|---------------------------------------------------------------|
D|-----------------------------2h4-------------------------------|
A|--9-----7-----5-----4-----2-----2------------------------------| 3x
E|---------------------------------------------------------------|

Verse: After he sings "Makes us" (0:55)
G|---------------------------------------------------------------|
D|------2h4--------------------------------------2h4-------------|
A|--2------2---------9-----7-----5-----4-----2------2------------| 2x
E|---------------------------------------------------------------|

G|---------------------------------------------------------------|
D|------2h4------------------------------------------------------|
A|--2------2---------9-----7-----5-----4-------------------------|
E|---------------------------------------------------------------|

G|-------------------11---------9----------7---------6-----------|
D|----------------------------------------------------------2h4--|
A|--7-9---7----9--9-------7--7-------5--5------4--4------2-----2-|
E|------9--------------------------------------------------------|

G|----------------11---------9----------7---------6--------------|
D|-------------------------------------------------------2h4-----|
A|----------9--9-------7--7-------5--5------4--4------2-----2----|
E|---------------------------------------------------------------|

G|----------------11---------9----------7---------6--------------|
D|---------------------------------------------------------------|
A|----------9--9-------7--7-------5--5------4--4-----------------|
E|---------------------------------------------------------------|

G|---------------------------------------------------------------|
D|--------------------9-7----------------------------------------|
A|-----5-7-5-7-9-10-9-----10-9-7---------------------------------|
E|---7---------------------------10-9-7--------------------------|

Bridge: Work it harder... (2:09)
G|---------------------------------------------------------------|
D|---------------------------------------------------------------|
A|--9--9--9--9--7--7--7--7--5--5--5--5--4--4--4--4---------------|
E|---------------------------------------------------------------|

G|---------------------------------------------------------------|
D|---------------------------------------------------------------|
A|--9--9--9--9--7--7--7--7--5--5--5--5--4--4---------------------|
E|---------------------------------------------------------------|

G|---------------------------------------------------------------|
D|---------------------------------------------------------------|
A|--9--9--9--9--7--7--7--7--5--5--5--5--4--4--4--4---------------|
E|---------------------------------------------------------------|

G|---------------------------------------------------------------|
D|---------------------------------------------------------------|
A|--9--9--9--9--7--7--7--7--5--5--5--5--4--4---------------------|
E|---------------------------------------------------------------|

Verse 2: (2:40)
G|---------------------------------------------------------------|
D|---------------------------------------------------------------|
A|--9---9---9-9h11-9--6---6---6--6--7---7---7--7--4---4---4--4---|
E|---------------------------------------------------------------|

G|---------------------------------------------------------------|
D|---------------------------------------------------------------|
A|--9---9---9---9--6---6---6--6--7---7---7--7--4---4---4--4------|
E|---------------------------------------------------------------|

G|---------------------------------------------------------------|
D|---------------------------------------------------------------|
A|--9---9---9-9h11-9--6---6---6--6--7---7---7--------------------|
E|---------------------------------------------------------------|

G|---------------------------------------------------------------|
D|---------------------------------------------------------------|
A|--9---9---9---9--6---6---6--6--7---7---7--7--4---4---4--4------|
E|---------------------------------------------------------------|

G|---------------------------------------------------------------|
D|---------------------------------------------------------------|
A|--9---9---9-9h11-9--6---6---6--6--7---7---7--------------------|
E|---------------------------------------------------------------|

G|---------------------------------------------------------------|
D|---------------------------------------------------------------|
A|--9---9---9---9--6---6---6--6--7---7---7--7--4---4---4--4------|
E|---------------------------------------------------------------|

G|---------------------------------------------------------------|
D|---------------------------------------------------------------|
A|--9---9---9-9h11-9--6---6---6--6--7---7---7--7--4---4---4--4---| 2x
E|---------------------------------------------------------------|
            
Hard to play? Try these video lessons and learn fast. | Correct




comments powered by Disqus
↑ Back to top | Tablatures and chords are parodies/interpretations of the original songs. You may use it for private study, scholarship, research or language learning purposes only