» » »

D.A.D, So What? Tabs (ver.2)

Artists:  A B C D E F G H I J K L M N O P Q R S T U V W X Y Z # 

So What? Tabs (ver.2)

D.A.D Tabs
 Rating:
4/5 (4 votes)
So What? lessons Tabs too difficult? Try these video lessons and learn fast
1
                Tuning : Standard


Intro
e--------------------------------------------------
b--------------------------------------------------
g--------------------------------------------------
D--------3--7---3--7-7-------------55-3------------
A------5------5----5-5--8-8----7-8-----------5-----
E-----------------------6-6---0----------4-3-------



Verse.
Dm                   Bb
I was jealous of the photographs

A7                 Gm
Taken before you meet me

Dm                Bb
You're in the sun with someone

A7         Gm
Happy on a strange Beach

Dm                 Bb
Don't think I wanna pull you down

A7                Gm
Or hold you so you can't move

Dm                Bb
You know all that keeps me here

A7                 Gm
Is what goes around you



Chorus
                           Bb    Fm
So what if we've seen each other naked 

                    Gm         Bb        Fm
And what if you've thrown that glass right at my head

              Gm      Bb      Fm 
And what if a ticking bomb is under our bed

                Dm         Gm 
If it's all for love!



Verse
Chorus


Bridge Rhythm Guitar : Dm Bb A7 Gm x8



Bridge Solo :
e---------------------------------------------------
b---15.---------10-13-10--8.-6.--8-8/10-------------
g-------9-10.---------------------------------------
D---------------------------------------------------
A---------------------------------------------------
E---------------------------------------------------

e---13..--10-10-------------------------------------
b----------------13.----15-13-15--------------------
g---------------------------------------------------
D---------------------------------------------------
A---------------------------------------------------
E---------------------------------------------------


Chorus
            
Submit corrections

comments powered by Disqus
↑ Back to top | D.A.D Tabs for So What?. Lyrics for acoustic guitar and electric guitar. 1 Tablatures and chords are parodies/interpretations of the original songs. You may use it for private study, scholarship, research or language learning purposes only