» » »

D.A.D, Scare Yourself Tabs (ver.1)

Artists:  A B C D E F G H I J K L M N O P Q R S T U V W X Y Z # 

Scare Yourself Tabs (ver.1)

D.A.D Tabs
 Rating:
4/5 (4 votes)
Scare Yourself lessons Tabs too difficult? Try these video lessons and learn fast
1
                One day while i was jaming i fell over the rifft and i pretty sure that is the correct 
I've used a lot of time to watch liveshows and videos to check that it is the correct 
and it is the very, very correct version of this song

Intro *2


E||---------------------------|--------------------------|
B||---------------------------|--------------------------|
G||---6-----6-----6-----6-----|--6-----6-----6-----6-----|
D||---6-----6-----6-----6-----|--6-----6-----6-----6-----|
A||---4-----4-----4-----4-----|--4-----4-----4-----4-----|
E||---------------------------|--------------------------|


Verse Riff

E||---------------------------|-----------------------------------|
B||---------------------------|-----------------------------------|
G||---6-----6-----6-----6-----|--6-----6-----6-----6/4-2-4-2-4-2-4|
D||---6-----6-----6-----6-----|--6-----6-----6-----6/4-2-4-2-4-2-4|
A||---4-----4-----4-----4-----|--4-----4-----4-----4/2-2-4-2-4-2-2|
E||---------------------------|-----------------------------------|

E||---------------------------|-----------------------------------|
B||---------------------------|-----------------------------------|
G||---6-----6-----6-----6-----|--6-----6-----6-----6/4-2-4-2-4-2-4|
D||---6-----6-----6-----6-----|--6-----6-----6-----6/4-2-4-2-4-2-4|
A||---4-----4-----4-----4-----|--4-----4-----4-----4/2-2-4-2-4-2-2|
E||--------------------------|------------------------------------|

E||---------------------------|----------------------------------------|
B||---------------------------|----------------------------------------|
G||---6-----6-----6-----6-----|--6-----6-----6-----6/8/-6-4-2-4-2-4-2-4|
D||---6-----6-----6-----6-----|--6-----6-----6-----6/8/-6-4-2-4-2-4-2-4|
A||---4-----4-----4-----4-----|--4-----4-----4-----4/10/4-2-2-4-2-4-2-2|
E||---------------------------|----------------------------------------|

Interlude *2

E||--------------------|-------------|--------|--------------------|
B||--------------------|-------------|--------|--------------------|
G||---4----------------|--7----------|--6-----|--------------------|
D||---4----------------|--7----------|--6-----|--5-----------------|
A||---2----------------|--5----------|--4-----|--5-----------------|
E||--------------------|-------------|--------|--3-----------------|


Chorus *2


E||------------------------------------------------------------------------|
B||------------------------------------------------------------------------|
G||--4---4---4---4----7--7--7--7-----6----6----6----6----------------------|
D||--4---4---4---4----7--7--7--7-----6----6----6----6----5----5----5----5--|
A||--2---2---2---2----5--5--5--5-----4----4----4----4----5----5----5----5--|
E||------------------------------------------------------3----3----3----3--|

Intro


Verse 2

E||---------------------------|-----------------------------------|
B||---------------------------|-----------------------------------|
G||---6-----6-----6-----6-----|--6-----6-----6-----6/4-2-4-2-4-2-4|
D||---6-----6-----6-----6-----|--6-----6-----6-----6/4-2-4-2-4-2-4|
A||---4-----4-----4-----4-----|--4-----4-----4-----4/2-2-4-2-4-2-2|
E||---------------------------|-----------------------------------|

E||---------------------------|-----------------------------------|
B||---------------------------|-----------------------------------|
G||---6-----6-----6-----6-----|--6-----6-----6-----6/4-2-4-2-4-2-4|
D||---6-----6-----6-----6-----|--6-----6-----6-----6/4-2-4-2-4-2-4|
A||---4-----4-----4-----4-----|--4-----4-----4-----4/2-2-4-2-4-2-2|
E||--------------------------|------------------------------------|

Interlude *2


Chorus *2


Interlude 2
"You never left the ground"
E||----------------------|----------------------|
B||----------------------|----------------------|
G||--------7-------------|--7-------------------|
D||---2----7----5--------|--7----5----2---------|
A||---2----5----5--------|--5----5----2---------|
E||---0---------3--------|-------3----0---------|


The Solo

E||--------------------------|
B||--------------------------|
G||--------------11----11b---|
D||--11----14----------------|
A||--------------------------|
E||--------------------------|


E||--------------------------|--------------------------|
B||--------------------------|--------------------------|
G||--------------11----11b---|------13--11--------------|
D||--11----14----------------|--------------------------|
A||--------------------------|----------------11~-------|
E||--------------------------|--------------------------|


E||--------------------------|--------------------------|
B||--------------------14~---|--------------------------|
G||--------------11----------|--------------11----11b---|
D||--11----14----------------|--11----14----------------|
A||--------------------------|--------------------------|
E||--------------------------|--------------------------|


E||---------------------|
B||---------------------|
G||------13--11----9~---|
D||---------------------|
A||---------------------|
E||---------------------|


Interlude 2x


Chorus 4x


Interlude 2 4x


If you got any comment or corrections you can mail me at
            
Submit corrections

comments powered by Disqus
↑ Back to top | D.A.D Tabs for Scare Yourself. Lyrics for acoustic guitar and electric guitar. 1 Tablatures and chords are parodies/interpretations of the original songs. You may use it for private study, scholarship, research or language learning purposes only