» » »

Rim Of Hell Tabs (ver.2)

Artists:  A B C D E F G H I J K L M N O P Q R S T U V W X Y Z # 

Rim Of Hell Tabs (ver.2)

D.A.D
Rating:
0/5 (0 votes)

Tabs too difficult? Try these video lessons and learn fast.
                Intro/chorus chords:

A5-A5-C5-G5





Intro:



e:----------------------------------------------------------------

b:----------------------------------------------------------------

g:----------------------------------------------------------------

d:-----------5-7-------------5-7------------5-------------5-------

a:-0-0--5/7-------0-0--5/7--------5-5--5/7-----3--5-5-5/7---------

e:-----------------------------------------------------------3-4--



play twice or so, and then - right before verse, play this:



e:------3-------2-----0--

b:-----------------------

g:-2/4-----4\2-----2-----

d:-----------------------

a:-----------------------

e:-----------------------



Verse:



The verse is based on 2 riffs:



Riff 1:



e:--------------

b:--3-3-3-5-----

g:-----------4--

d:--------------

a:--------------

e:--------------



or:



e:-----------------

b:--3--3--3--5--0--

g:--4--4--4--4--4--

d:-----------------

a:-----------------

e:-----------------



Riff 2:



e:------3-------2-----0--

b:-----------------------

g:-2/4-----4\2-----2-----

d:-----------------------

a:-----------------------

e:-----------------------



Pre-chorus:





e:-----------------------------------

b:--5-----3-----5~-----3-----2-----5~

g:--4-----4-----4~-----4-----2-----4~

d:--2-----0-----2~-----0-----2-----2~

a:-----------------------------------

e:-----------------------------------





e:---------------------------------------------------------------------

b:---------------------------------------------------------------------

g:--2--------------------------------------------5---------------------

d:--2-----------5-----------5----------2---------5---------5-----------

a:--0-----------5-----------5----------2---------3---------5-----------

e:--------------3-----------3----------0-------------------3-----------





Before solo:



e:----------------------

b:----------------------

g:--7-9-7-9----7-9-7-9--

d:--7-9-7-9----7-9-7-9--

a:--5-7-5-7----5-7-5-7--

e:----------------------





e:--------------------------

b:--------------------------

g:--------------------------

d:---------5----------5--5--

a:-0-0-5/7----3-3-5/7----5--

e:-----------------------3--



Solo:

???????????
            
Tabs too difficult? Try these video lessons and learn fast.


comments powered by Disqus
↑ Back to top | Tablatures and chords are parodies/interpretations of the original songs. You may use it for private study, scholarship, research or language learning purposes only