>
 >
Revolution 1

Revolution 1 Guitar Tabs

D.A.D - Revolution 1 chords, tabs, tablatures, lyrics

Guitar lessons | Add/correct | Request | Top 50 tabs Artists:  A B C D E F G H I J K L M N O P Q R S T U V W X Y Z 0-9

Revolution 1 Guitar Tabs – D.A.D

CD, Sheet music, Poster

Do you like Revolution 1? Share with your friends now
TabsTabs v2
D-A-D

Revolution

Tuning: normal E-tuning E-A-D-G-B-e

/+\ = Slide
h = Hammer-on
p = Pull-off
b = Bend

Intro:

|------------------------|
|----------------8-6-----|
|5-7-8--8-7----8-----7/--|
|-----------5------------|
|------------------------|
|------------------------|

|------------------------|
|----------------8-6-----|
|5-7-8--8-7----8-----7---|
|-----------5------------|
|------------------------|
|------------------------|

|-------------------------|
|-------------------------|
|-------------------------|
|-------------------------| x4
|10--------10---------7-7-|
|8---11-10-8---11-10--5-5-|

Verse:

|-------------------------|
|-------------------------|
|-------------------------|
|-------------------------| x8
|10--------10---------7-7-|
|8---11-10-8---11-10--5-5-|

Chorus:

|----------------------------------------------------|
|----------------------------------------------------|
|5-5-5-5-5-5---------------8-8-8-8-8-8-3-3-3-3-3-3-3-|
|5-5-5-5-5-5-5-5-5-5-5-5-5-8-8-8-8-8-8-3-3-3-3-3-3-3-| x2
|3-3-3-3-3-3-5-5-5-5-5-5-5-6-6-6-6-6-6-1-1-1-1-1-1-1-|
|------------3-3-3-3-3-3-3---------------------------|

|-------------------------|
|-------------------------|
|-------------------------|
|-------------------------|
|10--------10---------7-7-|
|8---11-10-8---11-10--5-5-|

Verse:

|-----------------------------|
|-----------------------------|
|-----------------------------|
|-----------------------------| x3
|10-10-------10-10--------7-7-|
|8--8--11-10-8--8--11-10--5-5-|

|---------------------------|
|---------------------------|
|---------------------------|
|---------------------------|
|10--------10---------7-7-7-|
|8---11-10-8---11-10--5-5-5-|

|-------------------------|
|-------------------------|
|-------------------------|
|-------------------------| x4
|10--------10---------7-7-|
|8---11-10-8---11-10--5-5-|

Chorus:

|----------------------------------------------------|
|----------------------------------------------------|
|5-5-5-5-5-5---------------8-8-8-8-8-8-3-3-3-3-3-3-3-|
|5-5-5-5-5-5-5-5-5-5-5-5-5-8-8-8-8-8-8-3-3-3-3-3-3-3-| x4
|3-3-3-3-3-3-5-5-5-5-5-5-5-6-6-6-6-6-6-1-1-1-1-1-1-1-|
|------------3-3-3-3-3-3-3---------------------------|

Interlude:

|-----------------------------|
|-----------------------------|
|-----------------------------|
|-----------------------------|
|10--------10---------7-------|
|8---11-10-8---11-10--5-------|

|---------------------------|
|---------------------------|
|---------------------------|
|---------------------------|
|10--------10---------7-7-7-|
|8---11-10-8---11-10--5-5-5-|

|------------------------------|
|------------------------------|
|------------------------------|
|------------------------------|
|10--------10---------7-7-7-7-7|
|8---11-10-8---11-10--5-5-5-5-5|

Solo:

|-------------------------------------------------|
|-------------------------------------------------|
|5p0-8p0-5p0-8p0-3/5\3p0-5p0-8p0-5p0-8p0-8/10\8p0-|
|-------------------------------------------------|
|-------------------------------------------------|
|-------------------------------------------------|

|--------------------------------------------------|
|--------------------------------------------------|
|5p0-8p0-3p0-3p0-3h4h5p0-5p0-8p0-7h8p0-5p0-7p0-7/3-|
|--------------------------------------------------|
|--------------------------------------------------|
|--------------------------------------------------|

|------------------------------------------------------|
|------------------------------------------------------|
|5p0-8p0-5p0-5p0-8/10\8p0-5p0-8p0-10p0-10p0-10h11h12p0-|
|------------------------------------------------------|
|------------------------------------------------------|
|------------------------------------------------------|

|--------------------------------------------------------------|
|--------------------------------------------------------------|
|5p0-8p0-10p0-10p0-12p11p10p0-8p0-10p0-12p0-11h12p10p0-8p0-8p7-|
|--------------------------------------------------------------|
|--------------------------------------------------------------|
|--------------------------------------------------------------|

|----------------------------------------|
|----------------------------------------|
|5-7b8-5-7b8-5h7-5h7-5-7b8-5-7b8-5h7-5h7-|
|----------------------------------------|
|----------------------------------------|
|----------------------------------------|

|------------------------------|
|4-6b8-4-6b8-4h6-4h6-4-6p4-6b9-|
|------------------------------|
|------------------------------|
|------------------------------|
|------------------------------|

Chorus:

|----------------------------------------------------|
|----------------------------------------------------|
|5-5-5-5-5-5---------------8-8-8-8-8-8-3-3-3-3-3-3-3-|
|5-5-5-5-5-5-5-5-5-5-5-5-5-8-8-8-8-8-8-3-3-3-3-3-3-3-| x4
|3-3-3-3-3-3-5-5-5-5-5-5-5-6-6-6-6-6-6-1-1-1-1-1-1-1-|
|------------3-3-3-3-3-3-3---------------------------|

|-------------------------|
|-------------------------|
|-------------------------|
|-------------------------|
|10--------10---------7-7-|
|8---11-10-8---11-10--5-5-|





Comments


Popular D.A.D tabs & chords
A New Age Moving In Tabs
Bad Craziness Tabs
Call Of The Willd Tabs
Isn That Wild Tabs
Naked (But Still Stripping) Tabs
Point Of View Intro Tabs
Rim Of Hell 1 Tabs
Camping In Scandinavia Ukulele
Down That Dusty 3rd World Road Ukulele
Laugh N A Ukulele


Song lyrics



↑ Back to top | Tablatures and chords are parodies/interpretations of the original songs. You may use it for private study, scholarship, research or language learning purposes only
© 2014 AZChords.com Contact us | Privacy policy | DMCA | Add/correct tabs | Request tabs | Top 50 tabs