» » »

Home Alone Tabs

Artists:  A B C D E F G H I J K L M N O P Q R S T U V W X Y Z # 

Home Alone Tabs

(ver. 2)
D.A.D Tabs
 Rating:
4/5 (4 votes)
    Home Alone lessons Tabs too difficult? Try these video lessons and learn fast
                D.A.D - Home Alone 4


Intro

E|---------------------|
B|---------------------|
G|---------------------|
D|--------5-S-9---5----|
A|-5-H-7---------------|
E|---------------------|


E|---------------------------------------|
B|o------------------------------------o-|
G|---------------------------------------|        x 1
D|----5-7-8-7-5---9--5-------------------|
A|o------------------------------------o-|
E|---------------------------------------|


Chord - D


E|------------------------|
B|------------------------|
G|--7-9-7-5-4--7-P-5------|
D|------------------------|
A|------------------------|
E|------------------------|


E|------------------------------------------|
B|------------------------------------------|
G|--5-5-7-5-4-------------------------------|
D|------------7-5-7-5-5--9--5---------------|
A|------------------------------------------|
E|------------------------------------------|


Enjoy!
            
Submit corrections

↑ Back to top | D.A.D Tabs for Home Alone. Lyrics for acoustic guitar and electric guitar. Tablatures and chords are parodies/interpretations of the original songs. You may use it for private study, scholarship, research or language learning purposes only