>
 >
What Im Made

What Im Made Guitar Tabs

Crush 40 - What Im Made chords, tabs, tablatures, lyrics

Guitar lessons | Add/correct | Request | Top 50 tabs Artists:  A B C D E F G H I J K L M N O P Q R S T U V W X Y Z 0-9

What Im Made Guitar Tabs – Crush 40

CD, Sheet music, Poster

Do you like What Im Made? Share with your friends now
Tabs
Track: What Im Made Of
Duration: (3:43)
Difficulty:????

E|------------------------------------------------------------------------------|
B|--12-9-12-10------------------12---------12----12-9-12/10-10-9----------------|
G|-------------11/9-----9h11-11----9h11-11-----------------------9--------------|
D|------------------------------------------------------------------------------|
A|------------------------------------------------------------------------------|
E|------------------------------------------------------------------------------|

E|-------------------------------------------------------------------------------|
B|-------10---------10-----------------------------------------------------------|
G|--9h11----119h11----11-----4-6b-6b-4-6-6-6-6------7/0-------------------------|
D|---------------------------------------------------7/0-------------------------|
A|-------------------------------------------------------------------------------|
E|-------------------------------------------------------------------------------|

Verse
       I don't care what you're thinking as you turn to me
E|-------------------3-----------2----------------------------------------------|
B|-------------------0-----------3----------------------------------------------|
G|-----2-------0-----0-----------2--------2---0------------0--2-----2\----------|
D|-----2-------0-----0-----------0--------2---0------------0--2--2-2\----------|
A|-----0-------0--------------------------0---0------------0--0-----0\----------|
E|------------------------------------------------------------------------------|

        Cause what I have in my two hands is enough to set me free
E|------------2--------------2--------------------------------------------------|
B|------------3--------------3--------------------------------------------------|
G|------------2------2-------2------0------------------------------------2----4-|
D|------------0------2-------0------0--------2-----2---2---4--2--2--2----2----4-|
A|-------------------0--------------0--------2-----2---2---4--2--2--2----0----2-|
E|------------------------------------------------------------------------------|


       I could fight the feeling to resist it over time
E|------------------------3-------2---------------------------------------------|
B|------------------------0-------3---------------------------------------------|
G|-----2-------0----------0-------2--------2---0-----2--------------------------|
D|-----2-------0----------0-------0--------2---0-----2--------------------------|
A|-----0-------0---------------------------0---0-----0-------5------------------|
E|---------------------------------------------------------------------------|


        But when it's just too much to take you sneak up from behind
E|----------2------------------2------------------------------------------------|
B|----------3------------------3------------------------------------------------|
G|----------2--------2---------2-------0----------------------------------------|
D|----------0--------2---------0-------0-----2-----2---2---4--2--2--2-----------|
A|-------------------0-----------------0-----2-----2---2---4--2--2--2-----------|
E|------------------------------------------------------------------------------|


Prechorus
        Is it me 	    You say 	you're looking for
E|------------2------------3-----------------------------------------------------|
B|------------3------------0-----------------------------------------------------|
G|------------2------------0------------------2------0-----0--2-----2\-----------|
D|------------0------------0------------------2------0-----0--2--2-2\-----------|
A|--------------------------------------------0------0-----0--0-----0\-----------|
E|-------------------------------------------------------------------------------|


        Let me show you who I am and what I'm here for... Here for
E|-------------2------------3---------------------------------------------------|
B|-------------3------------0---------------------------------------------------|
G|-------------2------------0-----------------2----0----------------------------|
D|-------------0------------0-----------------2----0------2----0----------------|
A|--------------------------------------------0----0------2----0----------------|
E|------------------------------------------------------------------------------|


	YEEEEAAAAAHHHHHHHH!
E|------------------------------------------------------------------------------|
B|------------------------------------------------------------------------------|
G|------0--2-----2-----2--2-----------------------------------------------------|
D|------0--2--2--2--2--2--2-----------------------------------------------------|
A|------0-0-----0-----0--0-----------------------------------------------------|
E|------------------------------------------------------------------------------|
Chorus
        Try to reach inside of me

E|------------------------------------------------------------------------------|
B|------6\5----5-----3---------3-----8p6----------------------------------------|
G|------5\4----4-----2------2--2--------7p5-------------------------------------|
D|------3\2----2-----0---------0------------------------------------------------|
A|------------------------------------------------------------------------------|
E|------------------------------------------------------------------------------|

        Try to drain my energy
E|------------------------------------------------------------------------------|
B|------6\5----5-------8---8---8--8---------------------------------------------|
G|------5\4----4-------7-2-7---7--7---------------------------------------------|
D|------3\2----2-------5---5---5--5---------------------------------------------|
A|------------------------------------------------------------------------------|
E|------------------------------------------------------------------------------|

        Let me show you just what I'm made of
E|------------------------------------------------------------------------------|
B|------6------3-------------8----6---5----3------------------------------------|
G|------5------2-------------7----5---4----2------------------------------------|
D|------3------0-------------5----3---2----0------------------------------------|
A|------------------------------------------------------------------------------|
E|------------------------------------------------------------------------------|


        Simple curiousity
E|------------------------------------------------------------------------------|
B|------6\5----5---3----3------------8p6----------------------------------------|
G|------5\4----4---2-2--2---------------7p5-------------------------------------|
D|------3\2----2---0----0-------------------------------------------------------|
A|------------------------------------------------------------------------------|
E|------------------------------------------------------------------------------|


        Tries to take a bite of me
E|------------------------------------------------------------------------------|
B|------6\5------5------8-------8---8--8----------------------------------------|
G|------5\4------4------7----2--7---7--7----------------------------------------|
D|------3\2------2------5-------5---5--5----------------------------------------|
A|------------------------------------------------------------------------------|
E|------------------------------------------------------------------------------|

        Let me show you just what I'm made of now
E|------------------------------------------------------------------------------|
B|------6------3-------------8----6---5----6--3---------------------------------|
G|------5------2-------------7----5---4----5--2---------------------------------|
D|------3------0-------------5----3---2----3--0---------------------------------|
A|------------------------------------------------------------------------------|
E|------------------------------------------------------------------------------|

Verse
       Like a million faces I've recognized them all
E|--------------------3------2--------------------------------------------------|
B|--------------------0------3--------------------------------------------------|
G|-----2-----0--------0------2----2---0------------0--2-----2\------------------|
D|-----2-----0--------0------0----2---0------------0--2--2-2\------------------|
A|-----0-----0--------------------0---0------------0--0-----0\------------------|
E|------------------------------------------------------------------------------|

        And one by one they all become a number as they fall
E|----------2---------------2---------------------------------------------------|
B|----------3---------------3---------------------------------------------------|
G|----------2------2--------2---0-----------------------------------2----4\-----|
D|----------0------2--------0---0--------2--2---2--4-----2--2--2----2----4\-----|
A|-----------------0------------0--------2--2---2--4-----2--2--2----0----2\-----|
E|------------------------------------------------------------------------------|

        In the face of reason I can't take no more
E|---------------------3--------------------------------------------------------|
B|---------------------0--------------------------------------------------------|
G|-----2-------0-------0--------------2---0-----2-------------------------------|
D|-----2-------0-------0-p2--------2---0-----2-------------------------------|
A|-----0-------0----------------------0---0-----0-------5-----------------------|
E|---------------------------------------------------------------------------|

        And One by one they all become a black mark on the floor
E|----------2----------------2--------------------------------------------------|
B|----------3----------------3--------------------------------------------------|
G|----------2------2---------2--0-----------------------------------------------|
D|----------0------2---------0--0--------2-----2----2--4---2--2--2--------------|
A|-----------------0------------0--------2-----2----2--4---2--2--2--------------|
E|------------------------------------------------------------------------------|


Prechorus
       Is it me 	    You say 	you're looking for
E|------------2------------3-----------------------------------------------------|
B|------------3------------0-----------------------------------------------------|
G|------------2------------0------------------2------0-----0--2-----2\-----------|
D|------------0------------0------------------2------0-----0--2--2-2\-----------|
A|--------------------------------------------0------0-----0--0-----0\-----------|
E|-------------------------------------------------------------------------------|


        Let me show you who I am and what I have in store... In store
E|-------------2-------------3--------------------------------------------------|
B|-------------3-------------0--------------------------------------------------|
G|-------------2-------------0--------------2------0----------------------------|
D|-------------0-------------0--------------2------0---------2--0---------------|
A|------------------------------------------0------0---------2--0---------------|
E|------------------------------------------------------------------------------|

	HEY HEY YEAHHHHHHH!
E|------------------------------------------------------------------------------|
B|------------------------------------------------------------------------------|
G|------0--2-----2-----2--2-----------------------------------------------------|
D|------0--2--2--2--2--2--2-----------------------------------------------------|
A|------0-0-----0-----0--0-----------------------------------------------------|
E|------------------------------------------------------------------------------|

Chorus
        Try to reach inside of me

E|------------------------------------------------------------------------------|
B|------6\5----5-----3---------3-----8p6----------------------------------------|
G|------5\4----4-----2------2--2--------7p5-------------------------------------|
D|------3\2----2-----0---------0------------------------------------------------|
A|------------------------------------------------------------------------------|
E|------------------------------------------------------------------------------|

        Try to drain my energy
E|------------------------------------------------------------------------------|
B|------6\5----5-------8---8---8--8---------------------------------------------|
G|------5\4----4-------7-2-7---7--7---------------------------------------------|
D|------3\2----2-------5---5---5--5---------------------------------------------|
A|------------------------------------------------------------------------------|
E|------------------------------------------------------------------------------|

        Let me show you just what I'm made of
E|------------------------------------------------------------------------------|
B|------6------3-------------8----6---5----3------------------------------------|
G|------5------2-------------7----5---4----2------------------------------------|
D|------3------0-------------5----3---2----0------------------------------------|
A|------------------------------------------------------------------------------|
E|------------------------------------------------------------------------------|

        Simple curiousity
E|------------------------------------------------------------------------------|
B|------6\5----5---3----3------------8p6----------------------------------------|
G|------5\4----4---2-2--2---------------7p5-------------------------------------|
D|------3\2----2---0----0-------------------------------------------------------|
A|------------------------------------------------------------------------------|
E|------------------------------------------------------------------------------|

        Tries to take a bite of me
E|------------------------------------------------------------------------------|
B|------6\5------5------8-------8---8--8----------------------------------------|
G|------5\4------4------7----2--7---7--7----------------------------------------|
D|------3\2------2------5-------5---5--5----------------------------------------|
A|------------------------------------------------------------------------------|
E|------------------------------------------------------------------------------|

        Let me show you just what I'm made of now
E|------------------------------------------------------------------------------|
B|------6------3-------------8----6---5----6--3---------------------------------|
G|------5------2-------------7----5---4----5--2---------------------------------|
D|------3------0-------------5----3---2----3--0---------------------------------|
A|------------------------------------------------------------------------------|
E|------------------------------------------------------------------------------|

Bridge

        If you could take another life long try
E|--------------------------------2---------------------------------------------|
B|--------------------------------3---------------------------------------------|
G|---------2---------4------------2---------------------------------------------|
D|---------2---------4------------0---------------------------------------------|
A|---------0---------2-------------------------------0--------------------------|
E|------------------------------------------0h2-2-2h4---------------------------|

        You can take another try
E|---------------------------2--------------------------------------------------|
B|---------------------------3--------------------------------------------------|
G|------2-------4------------2--------------------------------------------------|
D|------2-------4------------0--------------------------------------------------|
A|------0-------2-----------------5---------------------------------------------|
E|---------------------------------------------------------------------------|

Solo
E|--2---------4/7--4--5--2--0--2--0---------7--5--------------------------------|
B|-----0h2---------------------------2-----5------5--7--57--5------------------|
G|--------------------------------------4/6--------------------6----------------|
D|---------------------------------------------------------------7--------------|
A|------------------------------------------------------------------------------|
E|------------------------------------------------------------------------------|

E|--------------------57/9b-7-------10--16-----15------14----------------------|
B|-----4444-5555-7777--------------10------14-13--13-12---12--------------------|
G|---4--------------------------------------------------------------------------|
D|------------------------------------------------------------------------------|
A|------------------------------------------------------------------------------|
E|------------------------------------------------------------------------------|

E|------------------------------------------------------------------------------|
B|------------------------------------------------------------------------------|
G|---12/14-139-11b-9\7-7-6---------76b7-9-9/11-9-----------------------------|
D|---------------------------7-9-9----------------------------------------------|
A|------------------------------------------------------------------------------|
E|------------------------------------------------------------------------------|

E|------------------------------------------------------------------------------|
B|---------14-13-------13-12----------------------------------------12b---------|
G|---11-14-------11-14-------11-------14b-11-11-11-11-14-14-13b-14b-------------|
D|------------------------------14-14-------------------------------------------|
A|------------------------------------------------------------------------------|
E|------------------------------------------------------------------------------|


E|------------------------------------------------------------------------------|
B|---17-17p14p12-17-17p14p12-17-17p14p12-17-17p14p12-17-17p14p12-17-17p14p12----|
G|------------------------------------------------------------------------------|
D|------------------------------------------------------------------------------|
A|------------------------------------------------------------------------------|
E|------------------------------------------------------------------------------|


E|------------------------------------------------------------------------------|
B|17-17p14p12-17-17p14p12-12-14/17----------------------------------------------|
G|------------------------------------------------------------------------------|
D|------------------------------------------------------------------------------|
A|------------------------------------------------------------------------------|
E|------------------------------------------------------------------------------|

Chorus
        Try to reach inside of me

E|------------------------------------------------------------------------------|
B|------6\5----5-----3---------3-----8\6----------------------------------------|
G|------5\4----4-----2------2--2--------7\5-------------------------------------|
D|------3\2----2-----0---------0------------------------------------------------|
A|------------------------------------------------------------------------------|
E|------------------------------------------------------------------------------|

        Try to drain my energy
E|------------------------------------------------------------------------------|
B|------6\5----5-------8---8---8--8---------------------------------------------|
G|------5\4----4-------7-2-7---7--7---------------------------------------------|
D|------3\2----2-------5---5---5--5---------------------------------------------|
A|------------------------------------------------------------------------------|
E|------------------------------------------------------------------------------|


        Let me show you just what I'm made of
E|------------------------------------------------------------------------------|
B|------6------3-------------8----6---5----3------------------------------------|
G|------5------2-------------7----5---4----2------------------------------------|
D|------3------0-------------5----3---2----0------------------------------------|
A|------------------------------------------------------------------------------|
E|------------------------------------------------------------------------------|


        Simple curiousity
E|------------------------------------------------------------------------------|
B|------6\5----5---3----3------------8\6----------------------------------------|
G|------5\4----4---2-2--2---------------7\5-------------------------------------|
D|------3\2----2---0----0-------------------------------------------------------|
A|------------------------------------------------------------------------------|
E|------------------------------------------------------------------------------|

        Tries to take a bite of me
E|------------------------------------------------------------------------------|
B|------6\5------5------8-------8---8--8----------------------------------------|
G|------5\4------4------7----2--7---7--7----------------------------------------|
D|------3\2------2------5-------5---5--5----------------------------------------|
A|------------------------------------------------------------------------------|
E|------------------------------------------------------------------------------|

        Let me show you just what I'm made of now
E|------------------------------------------------------------------------------|
B|------6------3-------------8----6---5----6--3---------------------------------|
G|------5------2-------------7----5---4----5--2---------------------------------|
D|------3------0-------------5----3---2----3--0---------------------------------|
A|------------------------------------------------------------------------------|
E|------------------------------------------------------------------------------|

Shortened Chorus (You play the intro for this bit)
Try to reach inside of me
Try to drain my energy
Let me show you just what I'm Made Of!

NOTES
I dont know if the intro is right, can someone help? The solo is a simpler version of
easier. There are also a few flashy bits added in now and then (especially the second 
that I havent added because I dont know them. Feel free to modify this tab, but if
make any improvements, please submit it so everyone can learn.





Comments


Popular Crush 40 tabs & chords
Open Your Heart Bass Tabs
What I'm Made Of Chords
Chosen One Tabs
Fight The Knight Intro Tabs
Highway In The Sky Tabs
Live And Learn 1 Tabs
Metal Harbor 2 Tabs
Seven Rings In Hand Tabs
Sonics Return Tabs
With Me - Massive Power Mix Intro Tabs


Song lyrics



↑ Back to top | Tablatures and chords are parodies/interpretations of the original songs. You may use it for private study, scholarship, research or language learning purposes only
© 2014 AZChords.com Contact us | Privacy policy | DMCA | Add/correct tabs | Request tabs | Top 50 tabs