>
 >
What I'm Made Of

What I'm Made Of Bass Tabs

Crush 40 - What I'm Made Of chords, tabs, tablatures, lyrics

Guitar lessons | Add/correct | Request | Top 50 tabs Artists:  A B C D E F G H I J K L M N O P Q R S T U V W X Y Z 0-9

What I'm Made Of Bass Tabs – Crush 40

CD, Sheet music, Poster

Do you like What I'm Made Of? Share with your friends now
Bass TabsChordsTabs


Tuning: Bass Standard Tuning



     Q    Q    Q    Q        E  E  E  Q    E  E  E     E  E  E  Q    E  E  E   
G|-----------------------|-------------------------|-------------------------|
D|-----------------4\----|-------------------------|-------------------------|
A|-----------------------|-------------------------|--0--0--0--0-------0--0--|
E|-----------------------|--2--2--2--2----0--2--2--|----------------4--------|


  E  E  E  Q    E  E  E     E  E  E  Q    E  Q       E  E  E  E  E  E  E  E   
G|-------------------------|------------------------|--------------------------|
D|-------------------------|----------------0--2----|--0--0--0--0--0--0--0--0--|
A|--2--2--2--2----2--2--2--|--4--4--4--4------------|--------------------------|
E|-------------------------|------------------------|--------------------------|


  E  E  E  E  E  E  E  E     E  E  E  E  E  E  E  E     E  E  E  Q    Q    E   
G|--------------------------|--------------------------|------------------------|
D|--------------------------|--------------------------|--2--2------------------|
A|--0--0--0--0--0--0--0--0--|--2--2--2--2--2--2--2--2--|---------------------0--|
E|--------------------------|--------------------------|--------0--2----4-------|


  E  Q    Q    E  E  E     E  E  E  E  E  E  E  E     E  E  E  E  E  E  E  E   
G|------------------------|--------------------------|--------------------------|
D|---------------2--2--2--|--------------------------|--------------------------|
A|--L--2----4-------------|--------------------------|--------------------------|
E|------------------------|--0--2--2--0--2--2--0--2--|--2--0--2--2--0--2--0--2--|


  E  E  E  E  E  E  E  E     E  E  E  E  E  E  E  E     E  E  E  E  Q     Q     
G|--------------------------|--------------------------|-------------------------|
D|--------------------------|--------------------------|--0-----0--0-------------|
A|--------------------------|--------------------------|-----0--------5\----0----|
E|--0--2--2--0--2--2--0--2--|--2--0--0--2--2--0-----0--|-------------------------|


  E  E  E  E  E  E  E  E     E  E  E  E  E  E  E  E   
G|--------------------------|--------------------------|
D|--------------------------|--------------------------|
A|--0--0--0--0--0--------0--|--2--2--2--0--2--4--2--2--|
E|-----------------0--2-----|--------------------------|


  E  E  E  E  E  E  Q        E  E  E  E  E  E  E  E   
G|--------------------------|--------------------------|
D|-----0--------------------|--------------------------|
A|--0-----4--0--2--0--5\----|--------------------------|
E|--------------------------|--0--2--2--0--0--0--0--0--|


  E  E  E  E  E  E  E  E     E  E  E  E  E  E  E  E   
G|--------------------------|--------------------------|
D|--------------------------|--------------------------|
A|--0--0--0--0--0--0--0--0--|--2--2--2--2--2--2--2--2--|
E|--------------------------|--------------------------|


  E  E  E  E  E  E  E  E     E  E  E  E  E  E  E  E   
G|--------------------------|--------------------------|
D|--------------------0-----|--0--0--0--0--0--0--0--0--|
A|--4--4--4--4--2--4-----4--|--------------------------|
E|--------------------------|--------------------------|


  E  E  E  E  E  E  E  E     E  E  E  E  E  E  E  E   
G|--------------------------|--------------------------|
D|--------------------------|--------------------------|
A|--0--0--0--0--0--0--0--0--|--2--2--2--2--2--2--2--2--|
E|--------------------------|--------------------------|


  E  E  E  E  E  E  E  E     E  E  E  E  E  E  E  E   
G|--------------------------|--------------------------|
D|--------------------------|--0--0--------------------|
A|--4--4--0--4--4--4--2--4--|--------------0--0--0--0--|
E|--------------------------|--------2--4--------------|


  E  E  E  E  E  E  E  E     E  E  E  Q    E  E  E     E  E  E  E  E  E  E  E   
G|--------------------------|-------------------------|--------------------------|
D|--------0-----0--2--2--2--|-----------4-------4-----|--------------------------|
A|--0--0-----0--------------|--2--2--2-------2-----2--|--4--4--4--4--4--4--2--4--|
E|--------------------------|-------------------------|--------------------------|


  E  E  E  E  E  E  E  E     E  E  E  Q    E  E  E     E  E  E  E  E  E  E  E   
G|--------------------------|-------------------------|--------------------0-----|
D|--0--0--------------------|-----------2-------2-----|-----------------------0--|
A|--------------------0--4--|--0--0--0-------0-----0--|--4--4-----------2--------|
E|--------2--2--2--4--------|-------------------------|-----------0--4-----------|


  Q    E  Q    E  Q        E  E  Q     E  E  E  E     E  E  E  E  E  E  E  E   
G|--0----4--0-------0\----|--------------------------|--------------------------|
D|---------------0--------|-----------------3--3--3--|--3-----3--3-----3-----3--|
A|------------------------|-----0--------3-----------|-----3--------3-----3-----|
E|------------------------|--4-----0/----------------|--------------------------|


  E  Q    E  Q    E  E     E  E  Q.     E  E  E     E  E  E  E  E  E  E  E   
G|------------------------|------------------------|--------------------------|
D|------------------------|--------2---------------|--------------------------|
A|------------------------|---------------0--2-----|--------------------------|
E|--0--0----0--0----0--0--|--0--0---------------2--|--2--2--2--2--2--2--0--2--|


  E  E  E  E  E  E  E  E     E  E  E  E  E  E  E  E   
G|--------------------------|--------------------------|
D|--------------------------|--0--0--0--0--0--0--0-----|
A|--0--0--0--0--0--0--0--4--|-----------------------4--|
E|--------------------------|--------------------------|


  E  E  E  E  E  E  E  E     E  E  E  E  E  E  E  E   
G|--------------------------|--------------------------|
D|--------------------------|--0--0--0--0--0--0-----0--|
A|--2--2--2--2--2--2--0--2--|--------------------2-----|
E|--------------------------|--------------------------|


  E  E  E  E  E  E  E  E     E  E  E  E  E  E  E  E   
G|--------------------------|--------------------------|
D|--------------------------|--------------------------|
A|--0--0--0--0--0--0--0--0--|--2--2--2--2--2--2--2--2--|
E|--------------------------|--------------------------|


  E  E  E  E  E  E  Q        E  E  E  E  E  E  E  E   
G|--------------------------|--------------------------|
D|--------------------------|--------------------------|
A|--4--4--4--4--4--4--4\----|--------------------------|
E|--------------------------|--2--2--2--2--2--2--0--2--|


  E  E  E  E  E  E  E  E     E  E  E  E  E  E  E  E   
G|--------------------------|--------------------------|
D|--------------------------|--0--0--0--0--0--0--------|
A|--0--0--0--0--0--0--0--0--|--------------------0--2--|
E|--------------------------|--------------------------|


  E  E  E  E  E  E  E  E     E  E  E  E  E  E  E  E   
G|--------------------------|--------------------------|
D|--------------------------|--0--0--0--0--0--0--0--0--|
A|--2--2--2--2--2--2--0--2--|--------------------------|
E|--------------------------|--------------------------|


  E  E  E  E  E  E  E  E     E  E  E  E  E  E  E  E   
G|--------------------------|--------------------------|
D|--------------------------|--------------------------|
A|--0--0--0--0--0--0-----0--|--2--2--2--2--2--2--2--2--|
E|--------------------4-----|--------------------------|


  E  E  E  E  E  E  E  E     E  E  E  Q    E  Q       Q    E  Q    E  Q     
G|--------------------------|------------------------|-----------------------|
D|--------------------------|--0--0--0--0------------|----------2-------2----|
A|--4--4--4--4--2--4--4--4--|----------------0--2----|--0----0-------0-------|
E|--------------------------|------------------------|-----------------------|


  Q.     H        E     Q     E  E  E  E  Q       Q    Q    Q    Q     
G|---------------------|-------------------------|----------------------|
D|---------------------|-----------4--------4----|----------------------|
A|--0------------------|--------4-----0--4-------|--4----0----2----4----|
E|---------0--------2--|--L/---------------------|----------------------|


  E  E  E  E  Q    E  E     E  E  E  E  E  E  E  E     E  E  E  E  Q    E  E   
G|-------------------------|--------------------------|-------------------------|
D|-------------------------|--------------------------|-------------------------|
A|-------------------------|--------------------------|-------------------------|
E|--0--2--2--0--2----0--2--|--L--0--2--0--2--0--2--2--|--0--2--2--0--2----0--2--|


  E  E  E  E  E  E  E  E     E  E  E  E  E  E  E  E   
G|--------------------------|--------------------------|
D|--------------------------|--0--0--0--0--0-----0-----|
A|--------------------------|-----------------0-----0--|
E|--L--0--2--0--2--0--0--2--|--------------------------|


  E  E  E  E  E  E  E  E     E  E  E  E  E  E  E  E     Q.     E  Q    Q      
G|--------------------------|--------------------------|-----------------------|
D|-----------------0--------|--------------------------|--0------0-------------|
A|--L--0--0--0--0-----0--2--|--2--2--2--2--2--2--0--2--|------------2----2\----|
E|--------------------------|--------------------------|-----------------------|


  E  E  E  E  E  E  E  E     E  E  E  E  E  E  E  E   
G|--------------------------|--------------------------|
D|--------------------------|--------------------------|
A|--------------------------|--0--0--0--0--0--0-----0--|
E|--2--2--2--2--2--0--2--4--|--------------------4-----|


  E  E  E  E  E  E  E  E     E  E  E  E  E  E  E  E   
G|--------------------------|--------------------------|
D|--------------------------|--------------------------|
A|--2--2--2--2--2--2--0--2--|--4--4--4--4--4--4--2--4--|
E|--------------------------|--------------------------|


  E  E  E  E  E  E  E  E     E  E  E  E  E  E  E  E   
G|--------------------------|--------------------------|
D|--0--0--0--------0-----0--|--------------------------|
A|-----------0--0-----0-----|--0--0--0--------0-----0--|
E|--------------------------|-----------0--0-----0-----|


  E  E  E  E  E  E  E  E     E  E  E  E  E  E  E  E   
G|--------------------------|--------------------------|
D|--------------------------|--------------------------|
A|--2--2--2--2--2--2--2--2--|--4--4--4--2--2--2--2--4--|
E|--------------------------|--------------------------|


  E  E  E  E  E  E  E  E     E  E  E  Q    E  E  E     E  Q    Q    E  E  E   
G|--------------------------|-------------------------|------------------------|
D|--0--0--------------------|--------0--2-------2-----|------------------------|
A|--------------------0--4--|--0--0----------0-----0--|--2--2----2----2--0--2--|
E|--------2--2--2--4--------|-------------------------|------------------------|


  E  E  E  E  E  E  E  E     E  Q    Q    E  E  E     E  E  E  Q    E  E  E   
G|--------------------------|------------------------|-------------------------|
D|--------------------------|--0------------------2--|--2--------2-------2-----|
A|--4--4--4--4--4--2--4--0--|---------------0--4-----|-----0--0-------0-----0--|
E|--------------------------|-----2----4-------------|-------------------------|


  Q.     Q     E  E  E     E  Q    Q    E  E  E     E  E  E  Q    E  E  E   
G|------------------0-----|----------4----0--------|-------------------------|
D|---------------------0--|--2--4------------2--0--|----------------2--3--3--|
A|--2------------2--------|------------------------|--------0----------------|
E|---------2/-------------|------------------------|--2--4-----0-------------|


  E  E  E  E  E  E  E  E     E  Q    E  Q.     E     Q    Q    Q    Q     
G|--------------------------|-----------------------|----------------------|
D|--3--3--3--3--3--0--3--3--|-----------------------|------------2---------|
A|--------------------------|-----------------------|-------2---------2----|
E|--------------------------|--0--0----0--0------0--|--0-------------------|


  E  E  E  E  E  E  E  E     E  E  E  E  E  E  E  E   
G|--------------------------|--------------------------|
D|--------------------------|--------------------------|
A|--------------------------|--0--0--0--0--0--0--0--0--|
E|--2--2--2--2--0--2--2--2--|--------------------------|


  E  E  E  E  E  E  E  E     E  E  E  E  E  E  E  E   
G|--------------------------|--------------------------|
D|--0--0--0--0--0-----0-----|--------------------------|
A|-----------------0-----0--|--2--2--2--2--2--2--2--2--|
E|--------------------------|--------------------------|


  E  E  E  E  E  E  E  E     E  E  E  E  E  E  E  E   
G|--------------------------|--------------------------|
D|--0--0--0--0--0--0-----0--|--------------------------|
A|--------------------0-----|--0--0--0--0--------0--0--|
E|--------------------------|--------------0--0--------|


  E  E  E  E  E  E  E  E     E  E  E  E  E  E  E  E   
G|--------------------------|--------------------------|
D|--------------------------|--------------------------|
A|--2--2--2--2--2--2--2--2--|--4--4--4--4--4--4--2--4--|
E|--------------------------|--------------------------|


  E  E  E  E  E  E  E  E     E  E  E  E  E  E  E  E   
G|--------------------------|--------------------------|
D|--------------------------|--------------------------|
A|--------------------------|--0--0--0--0--0--0--0--0--|
E|--2--2--2--2--2--0--2--2--|--------------------------|


  E  E  E  E  E  E  E  E     E  E  E  E  E  E  E  E   
G|--------------------------|--------------------------|
D|--0--0--0--0--0--0--------|--------------------------|
A|--------------------0--2--|--2--2--2--2--2--2--0--2--|
E|--------------------------|--------------------------|


  E  E  E  E  E  E  E  E     E  E  E  E  E  E  E  E   
G|--------------------------|--------------------------|
D|--0--0--0--0--0--0--0--0--|--------------------------|
A|--------------------------|--0--0--0--0--0--0--0--2--|
E|--------------------------|--------------------------|


  E  E  E  E  E  E  E  E     E  E  E  E  E  E  E  E   
G|--------------------------|--------------------------|
D|--------------------------|--------------------------|
A|--2--2--2--2--2--2--2--2--|--4--4--4--4--2--2--4--4--|
E|--------------------------|--------------------------|


  E  E  E  E  E  E  E  E     E  E  E  E  E  E  Q       Q.     Q.     Q     
G|--------------------------|-------------------------|---------------------|
D|--0--0--0--0--0--0--0--2--|--L--2--2--2--2--2--2----|---------------------|
A|--------------------------|-------------------------|--0------------------|
E|--------------------------|-------------------------|---------0------2----|


  E  Q    Q    E  Q       Q.      E  E  E  E  E     H        E  E  Q     
G|-----------------------|-------------------------|----------------------|
D|-----------------------|--0\------------------2--|--L--------L-----2----|
A|----------0----2--4----|----------------0--4-----|----------------------|
E|--L--4-----------------|----------2--4-----------|--------------2-------|


  Q     E  Q    E  Q        E  E  E  Q.     Q       H         Q    E  E   
G|--------2--2-------------|-----------------------|-----------------------|
D|-------------------4\----|-----------------------|--0\-------------------|
A|--0/------------0--------|-----------0------4----|--------------------0--|
E|-------------------------|--2--4-----------------|------------2----4-----|


  Q    E  E  E  E  E  E     E  E  E  Q    E  Q        Q.     Q    E  Q      
G|-------------------------|-------------------------|--0------0-------0\----|
D|--2-------2--2-----2-----|-------------------------|--------------0--------|
A|-------0--------0-----0--|-------------------------|-----------------------|
E|-------------------------|--3--3--3--3----3--3/----|-----------------------|


  E  E  E  Q    E  Q       E  Q    E  Q    E  E     Q    H        Q      
G|------------------------|------------------------|----------------------|
D|------------------------|------------------------|----------------------|
A|-----------0----1--2----|--4--4----4--4----4--4--|--4----4--------4\----|
E|--3--3--3---------------|------------------------|----------------------|


  H        E  E  E  E     E  E  E  E  E  E  E  E     E  E  E  E  E  E  E  E   
G|-----------------------|--------------------------|--------------------------|
D|-----------------------|--------------------------|--------------------------|
A|-----------------------|--------------------------|--0--0--0--0--0--0--0--0--|
E|--2--------2--2--2--2--|--2--2--2--2--2--2--2--4--|--------------------------|


  E  E  E  E  E  E  E  E     E  E  E  E  E  E  E  E   
G|--------------------------|--------------------------|
D|--------------------------|--------------------------|
A|--0--0--0--0--0--0--0--0--|--2--2--2--2--2--2--2--2--|
E|--------------------------|--------------------------|


  E  E  E  E  E  E  E  E     E  E  E  E  E  E  E  E     Q.     Q.     Q     
G|--------------------------|--------------------------|---------------------|
D|--------------------------|--0--0--0--0--0--0--0--0--|---------------------|
A|--2--2--2--2--2--2--0--2--|--------------------------|--4------0------2----|
E|--------------------------|--------------------------|---------------------|


  E  E  E  E  E  E  E  E     E  E  E  E  E  E  E  E   
G|--------------------------|--------------------------|
D|--------------------------|--------------------------|
A|--------------------------|--------------------------|
E|--2--2--2--2--2--2--2--2--|--2--2--2--2--2--2--4--4--|


  E  E  E  E  E  E  E  E     E  E  E  E  E  E  E  E   
G|--------------------------|--------------------------|
D|--------------------------|--------------------------|
A|--0--0--0--0--0--0--0--0--|--0--0--0--0--0--0--0--0--|
E|--------------------------|--------------------------|


  E  E  E  E  E  E  E  E     E  E  E  E  E  E  Q       E  E  E  E  E  E  E  E   
G|--------------------------|-------------------------|--------------------------|
D|--------------------------|-------------------------|--0--0--0--0--0--0--0--0--|
A|--2--2--2--2--2--2--2--2--|--2--2--2--2--2--2--2----|--------------------------|
E|--------------------------|-------------------------|--------------------------|


  Q.     Q.     Q       E  Q    E  Q    E  E     Q    Q     Q    Q     
G|---------------------|------------------------|-----------------------|
D|---------0-----------|------------------------|-----------------------|
A|--4-------------4----|------------------------|-----------------------|
E|---------------------|--0--0----0--0----0--0--|--2----2/----2----2----|


  E  E  E  E  E  E  E  E     E  E  E  E  E  E  E  E   
G|--------------------------|--------------------------|
D|--------------------------|--------------------------|
A|--------------------------|--0--0--0--0--0--0--0--0--|
E|--2--2--2--2--2--2--0--2--|--------------------------|


  E  E  E  E  E  E  E  E     E  E  E  E  E  E  E  E   
G|--------------------------|--------------------------|
D|--0--0--0--0--0-----0-----|--------------------------|
A|-----------------0-----0--|--2--2--2--2--2--2--0--2--|
E|--------------------------|--------------------------|


  E  E  E  E  E  E  Q        E  E  E  E  E  E  E  E   
G|--------------------------|--------------------------|
D|--0--0--0--0--0--0--------|--------------------------|
A|--------------------5\----|--0--0--0--0--0--0--0--0--|
E|--------------------------|--------------------------|


  E  E  E  E  E  E  E  E     E  E  E  E  E  E  E  E   
G|--------------------------|--------------------------|
D|--------------------------|--------------------------|
A|--2--2--2--2--2--2--2--2--|--4--4--4--4--2--2--4--0--|
E|--------------------------|--------------------------|


  E  E  E  E  E  E  E  E     E  E  E  E  E  E  E  E   
G|--------------------------|--------------------------|
D|--------------------------|--------------------------|
A|--------------------------|--0--0--0--0--0--0--0--0--|
E|--2--2--2--2--2--2--0--2--|--------------------------|


  E  E  E  E  E  E  E  E     E  E  E  E  E  E  E  E   
G|--------------------------|--------------------------|
D|--0--0--0--0--0-----0-----|--------------------------|
A|-----------------0-----0--|--2--2--2--2--2--2--0--2--|
E|--------------------------|--------------------------|


  E  E  E  E  E  E  E  E     E  E  E  E  E  E  E  E   
G|--------------------------|--------------------------|
D|--0--0--0--0--0--0--0--0--|--------------------------|
A|--------------------------|--0--0--0--0--0--0--0--0--|
E|--------------------------|--------------------------|


  E  E  E  E  E  E  E  E     E  E  E  E  E  E  E  E     E  E  E  Q    E  E  E   
G|--------------------------|--------------------------|-------------------------|
D|--------------------------|--------------------------|--0--0-----0-------0--2--|
A|--2--2--2--2--2--2--2--2--|--4--4--4--4--2--2--4--4--|--------0-------0--------|
E|--------------------------|--------------------------|-------------------------|


  E  E  E  E  E  E  E  E     Q.     Q.     Q       E  E  E  Q    E  Q     
G|--------------------------|---------------------|------------------------|
D|--L-----2-----2-----2-----|---------------------|------------------------|
A|-----2-----2-----2-----2--|--0------------------|------------------------|
E|--------------------------|---------0------L----|--2--2--2--2----0--2----|


  E  E  E  Q    E  Q       E  E  E  E  E  E  E  E     E  E  E  E  E  E  Q     
G|------------------------|--------------------------|-------------------------|
D|------------------------|--------------------------|-----------------0--2----|
A|--0--0--0--0-------0----|--2--2--2--2--2--2--2--2--|--4--4--4--4--4----------|
E|----------------4-------|--------------------------|-------------------------|


  E  E  E  E  E  E  E  E     E  E  E  E  E  E  E  E                  
G|--------------------------|--------------------------|-----|-------|
D|--0--0--0--0--0--0--0--0--|--------------------------|-----|-------|
A|--------------------------|--0--0--0--0--0--0--0--0--|-----|-------|
E|--------------------------|--------------------------|-----|-------|




Duration Legend
---------------
W - whole
H - half
Q - quarter
E - 8th
S - 16th
T - 32nd
X - 64th
. - note dotted
|-n-|  - n-tuplets


Tablature Legend
----------------
L - tied note
x - dead note
g - grace note
(n) - ghost note
> - accentuded note
NH - natural harmonic
AH - artificial harmonic
TH - tapped harmonic
SH - semi harmonic
PH - pitch harmonic
h - hammer on
p - pull off
b - bend
br - bendRelease
pb - preBend
pbr - preBendRelease
brb - bendReleaseBend
\n/ - tremolo bar dip
\n - tremolo bar dive
-/n - tremolo bar Release up
/n\ - tremolo bar inverted dip
/n - tremolo bar return
-\n - tremolo bar Release down
S - shift slide
s - legato slide
/ -  slide into from below or out of upwards
\ -  slide into from above or out of downwards
~ - vibrato
W - wide vibrato
tr - trill
TP - tremolo picking
T - tapping
S - slap
P - pop
< - fade in
^ - brush up
v - brush down





Comments


Popular Crush 40 tabs & chords
Escape From The City Bass Tabs
Is It You Chords
All Hail Shadow Intro 1 Tabs
Highway In The Sky Tabs
Keys To The Ruin Tabs
Metal Harbor Tabs
Metal Harbor 2 Tabs
Seven Rings In Hand Tabs
What Im Made Tabs
With Me - Massive Power Mix Intro Tabs


Song lyrics



↑ Back to top | Tablatures and chords are parodies/interpretations of the original songs. You may use it for private study, scholarship, research or language learning purposes only
© 2014 AZChords.com Contact us | Privacy policy | DMCA | Add/correct tabs | Request tabs | Top 50 tabs