» » »

Metal Harbor Tabs (ver.3)

Artists:  A B C D E F G H I J K L M N O P Q R S T U V W X Y Z # 

Metal Harbor Tabs (ver.3)

Crush 40
Rating:
3/5 (1 vote)

Hard to play? Try these video lessons and learn fast.
                -----------------------------------------------------------
                             SONG NAME - Band Name
-----------------------------------------------------------

Tuning: Drop D

This is my first time tabbing, so I may have made a mistake
I've listened to it really well, and I'm preeeeetty sure
that these are the right tabs for the rhythm part of the
song. Enjoy~! :D


Intro: x2
|---------------------------------------------------------|
|---------------------------------------------------------|
|---------------------------------------------------------|
|---12--12--12-12-12-12---------10--10--10-10-10-10-------|
|---12--12--12-12-12-12---------10--10--10-10-10-10-------|
|---12--12--12-12-12-12---------10--10--10-10-10-10-------|

|---------------------------------------------------------|
|---------------------------------------------------------|
|---------------------------------------------------------|
|---5--5--5-5-5-5---------10--10--10-10-10-10-------------|
|---5--5--5-5-5-5---------10--10--10-10-10-10-------------|
|---5--5--5-5-5-5---------10--10--10-10-10-10-------------|

|---------------------------------------------------------|
|---------------------------------------------------------|
|---------------------------------------------------------|
|---12--12--12-12-12-12---------10--10--10-10-10-10-------|
|---12--12--12-12-12-12---------10--10--10-10-10-10-------|
|---12--12--12-12-12-12---------10--10--10-10-10-10-------|

|---------------------------------------------------------|
|---------------------------------------------------------|
|---------------------------------------------------------|
|---5--5--5-5-5-5---------8-8-8-10-10-10------------------|
|---5--5--5-5-5-5---------8-8-8-10-10-10------------------|
|---5--5--5-5-5-5---------8-8-8-10-10-10------------------|



Verse:
|---------------------------------------------------------|
|---------------------------------------------------------|
|---------------------------------------------------------|
|-12-x-x-x-x-x-x-4-x-x-x-x-x-x-5-x-x-x-x-x-x---7-7--9-7---|
|-12-x-x-x-x-x-x-4-x-x-x-x-x-x-5-x-x-x-x-x-x---7-7--9-7---|
|-12-x-x-x-x-x-x-4-x-x-x-x-x-x-5-x-x-x-x-x-x---7-7--9-7---|

|---------------------------------------------------------|
|---------------------------------------------------------|
|---------------------------------------------------------|
|-12-x-x-x-x-x-x-4-x-x-x-x-x-x-5-x-x-x-x-x-x---7-7--9-7---|
|-12-x-x-x-x-x-x-4-x-x-x-x-x-x-5-x-x-x-x-x-x---7-7--9-7---|
|-12-x-x-x-x-x-x-4-x-x-x-x-x-x-5-x-x-x-x-x-x---7-7--9-7---|

|---------------------------------------------------------|
|---------------------------------------------------------|
|---------------------------------------------------------|
|-9--9--9-9-9-10--x-x--x-x-x--9--9-9-9-9-7--x-x--x-x-x----|
|-9--9--9-9-9-10--x-x--x-x-x--9--9-9-9-9-7--x-x--x-x-x----|
|-9--9--9-9-9-10--x-x--x-x-x--9--9-9-9-9-7--x-x--x-x-x----|

|---------------------------------------------------------|
|---------------------------------------------------------|
|---------------------------------------------------------|
|-9--9--9-9-9-10--x-x--x-x-x---x-5-x-x-5-x-x-6-6-6--------|
|-9--9--9-9-9-10--x-x--x-x-x---x-5-x-x-5-x-x-6-6-6--------|
|-9--9--9-9-9-10--x-x--x-x-x---x-5-x-x-5-x-x-6-6-6--------|

|---------------------------------------------------------|
|---------------------------------------------------------|
|---------------------------------------------------------|
|-12-x-x-x-x-x-x-4-x-x-x-x-x-x-5-x-x-x-x-x-x---7-7--9-7---|
|-12-x-x-x-x-x-x-4-x-x-x-x-x-x-5-x-x-x-x-x-x---7-7--9-7---|
|-12-x-x-x-x-x-x-4-x-x-x-x-x-x-5-x-x-x-x-x-x---7-7--9-7---|

|---------------------------------------------------------|
|---------------------------------------------------------|
|---------------------------------------------------------|
|-12-x-x-x-x-x-x-4-x-x-x-x-x-x-5-5-5-5-5-5-5--9-9-9-7-7-7-|
|-12-x-x-x-x-x-x-4-x-x-x-x-x-x-5-5-5-5-5-5-5--9-9-9-7-7-7-|
|-12-x-x-x-x-x-x-4-x-x-x-x-x-x-5-5-5-5-5-5-5--9-9-9-7-7-7-|

|---------------------------------------------------------|
|---------------------------------------------------------|
|---------------------------------------------------------|
|-5--5--5-5-5-7--x-x--x-x-x--9--9-9-9-9-12--x-x--x-x-x----|
|-5--5--5-5-5-7--x-x--x-x-x--9--9-9-9-9-12--x-x--x-x-x----|
|-5--5--5-5-5-7--x-x--x-x-x--9--9-9-9-9-12--x-x--x-x-x----|

|---------------------------------------------------------|
|---------------------------------------------------------|
|---------------------------------------------------------|
|-5--5--5-5-5-7--x-x--x-x-x--x-8-x-x-8-x-x-10-10-10-------|
|-5--5--5-5-5-7--x-x--x-x-x--x-8-x-x-8-x-x-10-10-10-------|
|-5--5--5-5-5-7--x-x--x-x-x--x-8-x-x-8-x-x-10-10-10-------|



Chorus:
|---------------------------------------------------------|
|---------------------------------------------------------|
|---------------------------------------------------------|
|-12-x-x-x-x-x-x-x-12-12-12------9-x-x-x-x-x-x-x-9-9-9----|
|-12-x-x-x-x-x-x-x-12-12-12------9-x-x-x-x-x-x-x-9-9-9----|
|-12-x-x-x-x-x-x-x-12-12-12------9-x-x-x-x-x-x-x-9-9-9----|

|---------------------------------------------------------|
|---------------------------------------------------------|
|---------------------------------------------------------|
|-10-x-x-x-x-x-x-x-10-10-10------7---5---7---7-7-7--------|
|-10-x-x-x-x-x-x-x-10-10-10------7---5---7---7-7-7--------|
|-10-x-x-x-x-x-x-x-10-10-10------7---5---7---7-7-7--------|

|---------------------------------------------------------|
|---------------------------------------------------------|
|---------------------------------------------------------|
|-12-x-x-x-x-x-x-x-12-12-12------9-x-x-x-x-x-x-x-9-9-9----|
|-12-x-x-x-x-x-x-x-12-12-12------9-x-x-x-x-x-x-x-9-9-9----|
|-12-x-x-x-x-x-x-x-12-12-12------9-x-x-x-x-x-x-x-9-9-9----|

|---------------------------------------------------------|
|---------------------------------------------------------|
|---------------------------------------------------------|
|-10-x-x-x-x-x-x-x-10-10-10------5~---7~------------------|
|-10-x-x-x-x-x-x-x-10-10-10------5~---7~------------------|
|-10-x-x-x-x-x-x-x-10-10-10------5~---7~------------------|

Repeat intro, verse, then chorus two times with this:

|---------------------------------------------------------|
|---------------------------------------------------------|
|---------------------------------------------------------|
|-12~~~--------------------------12-----------------------|
|-12~~~--------------------------12-----------------------|
|-12~~~--------------------------12-----------------------|

at the end of the last chorus.

There~! You just did the rhythm part of Metal Harbor's song
"That's The Way I Like It"~! Have fun now!
            
Hard to play? Try these video lessons and learn fast. | Correct




comments powered by Disqus
↑ Back to top | Tablatures and chords are parodies/interpretations of the original songs. You may use it for private study, scholarship, research or language learning purposes only