» » »

Crush 40, Metal Harbor Tabs (ver.1)

Artists:  A B C D E F G H I J K L M N O P Q R S T U V W X Y Z # 

Metal Harbor Tabs (ver.1)

Crush 40 Tabs
Rating:
4/5 (8 votes)
Metal Harbor lessons Tabs too difficult? Try these video lessons and learn fast
                                               Metal Harbor


This is the correct Tab for Metal Harbor, from the SA2 Battle Soundtrack.
Enjoy.

Intro:

Guitar 1
E|----------------------------------------|
B|----------------------------------------|
G|-5-5-5555--3-3-3330---------0--3-3-3333-| 
D|-5-5-5555--3-3-3330--3-3-3330--3-3-3333-|
A|-3-3-3333--1-1-1110--3-3-3330--1-1-1111-|
E|---------------------1-1-111------------|

Guitar 1
E|------------------------------|
B|------------------------------|
G|------------------------------|
D|--------7h8-7-----------------|
A|-----10-------10-8------------|
E|-0\8---------------4444-6666--|
Guitar 2
E|---------------------------------------|
B|---------------------------------------|
G|-5-5-5555--3-3-3330--------------------| 
D|-5-5-5555--3-3-3330--3-3-3333----6---8-|
A|-3-3-3333--1-1-1110--3-3-3333----6---8-|
E|---------------------1-1-1111--444-666-|
                                 ..  ..

Main Riff:

Guitar 1
E|---------------------------------------------|
B|------11\13-8-11-11-8-11-10-8-----9-9-8------|
G|------------------------------10/--------10/-|x2
D|-8\10----------------------------------------|
A|---------------------------------------------|
E|---------------------------------------------|
Guitar 2
E|----------------------------------------|
B|----------------------------------------|
G|-5-5-5555--3-3-3330---------0--3-3-3333-|x2 
D|-5-5-5555--3-3-3330--3-3-3330--3-3-3333-|
A|-3-3-3333--1-1-1110--3-3-3330--1-1-1111-|
E|---------------------1-1-111------------|


Verse Riff:

Guitar 1
E|--------------------------------|
B|--------------------------------|
G|-5\12-9-9-99-10--10~12r10-9-----|
D|----------------------------10/-|
A|--------------------------------|
E|--------------------------------|

Guitar 1
E|--------------------------------|
B|--------------------------------|
G|-5\12-9-9-99-10--10~12r10-9\15~-|
D|--------------------------------|
A|--------------------------------|
E|--------------------------------|

Guitar 1
E|------------------11~12p10----------|
B|-5\10-13-11-13~15----------13-12----|
G|---------------------------------12-|
D|------------------------------------|
A|------------------------------------|
E|------------------------------------|

Guitar 1
E|--------------------------------------|
B|-5\10-13-11-13-13~15r13--\10-12-13~15-|
G|--------------------------------------| 
D|--------------------------------------|
A|--------------------------------------|
E|--------------------------------------|

Guitar 1
E|--------------------------------|
B|--------------------------------|
G|-5\12-9-9-99-10--10~12r10-9-----|
D|----------------------------10/-|
A|--------------------------------|
E|--------------------------------|

Guitar 1
E|--------------------------------|
B|--------------------------------|
G|-5\12-9-9-99-10--10~12r10-9\15~-|
D|--------------------------------|
A|--------------------------------|
E|--------------------------------|

Guitar 1
E|---------------------------------------|
B|-5\10-13-12-13-13~15r13----15-15~17r15-|
G|------------------------12-------------| 
D|---------------------------------------|
A|---------------------------------------|
E|---------------------------------------|

Guitar 1
E|------------------------------------------|
B|-5\10-13-12-13-13~15r13--\17-15-17~18r17~-|
G|------------------------------------------| 
D|------------------------------------------|
A|------------------------------------------|
E|------------------------------------------|

Guitar 1
E|-13~15-12----------|
B|----------15-13~15~|
G|-------------------|This part is repeated with an echo effect.
D|-------------------|Repeat at your own will if you want to.
A|-------------------|
E|-------------------|

Guitar 1
E|-------------------------------|
B|-5\10-13--13-13~15r13-13~15r13~|
G|-------------------------------|
D|-------------------------------|
A|-------------------------------|
E|-------------------------------|

Guitar 1
E|-13~15-12-----------\15-17-------------|
B|----------15-13~15~--------17-13~15r13-|
G|---------------------------------------|
D|---------------------------------------|
A|---------------------------------------|
E|---------------------------------------|

Guitar 1
E|--------15-13~-|
B|-\13-17--------|
G|---------------|
D|---------------|
A|---------------|
E|---------------|


Repeat Main Riff.


Guitar 1
E|-----------------------------|
B|-----------------------------|
G|-5\12-9-9-99-10--12-10-9-----|
D|-------------------------10/-|
A|-----------------------------|
E|-----------------------------|

Guitar 1
E|-----------------------------|
B|-----------------------------|
G|-5\12-9-9-99-10--12-10-9\15~-|
D|-----------------------------|
A|-----------------------------|
E|-----------------------------|

Guitar 1
E|------------------11~12p10----------------|
B|-5\10-13-11-13~15----------13-12h13p12----|
G|---------------------------------------12-|
D|------------------------------------------|
A|------------------------------------------|
E|------------------------------------------|

Guitar 1
E|--------------------------------------|
B|-5\10-13-11-13-13~15r13--\10-12-13~15-|
G|--------------------------------------| 
D|--------------------------------------|
A|--------------------------------------|
E|--------------------------------------|

Guitar 1
E|------------------------------|
B|------------------------------|
G|-5\12-9-9-99-10--\12-10-9-----|
D|--------------------------10/-|
A|------------------------------|
E|------------------------------|

Guitar 1
E|-----------------------------|
B|-----------------------------|
G|-5\12-9-9-99-10--12-10-9\15~-|
D|-----------------------------|
A|-----------------------------|
E|-----------------------------|

Guitar 1
E|-----------------------------------------|
B|-5\10-13-12-13-1313~15r13----15-15~17r15-|
G|--------------------------12-------------|be sure to hit the double 13's. 
D|-----------------------------------------|
A|-----------------------------------------|
E|-----------------------------------------|

Guitar 1
E|------------------------------------------|
B|-5\10-13-12-13-13~15r13--\17-15-17~18r17~-|
G|------------------------------------------| 
D|------------------------------------------|
A|------------------------------------------|
E|------------------------------------------|

Guitar 1
E|-13~15-12----------|
B|----------15-13~15~|
G|-------------------|This part is repeated with an echo effect.
D|-------------------|You can repeat at your own will if you want.
A|-------------------|
E|-------------------|

Guitar 1
E|-------------------------------|
B|-5\10-13--13-13~15r13-13~15r13~|
G|-------------------------------|
D|-------------------------------|
A|-------------------------------|
E|-------------------------------|

Guitar 1
E|-13~15-12-----------\15-17-------------|
B|----------15-13~15~--------17-13~15r13-|
G|---------------------------------------|
D|---------------------------------------|
A|---------------------------------------|
E|---------------------------------------|

Guitar 1
E|--------15-13~-15-13-12-|
B|-\13-17-----------------|
G|------------------------|
D|------------------------|
A|------------------------|
E|------------------------|

Repeat what needs to be repeated.
            
Submit corrections

comments powered by Disqus
↑ Back to top | Crush 40 Tabs for Metal Harbor. Lyrics for acoustic guitar and electric guitar. Tablatures and chords are parodies/interpretations of the original songs. You may use it for private study, scholarship, research or language learning purposes only