» » »

Crush 40, His World Tabs (ver.2)

Artists:  A B C D E F G H I J K L M N O P Q R S T U V W X Y Z # 

His World Tabs (ver.2)

Crush 40 Tabs
 Rating:
4/5 (7 votes)
His World lessons Tabs too difficult? Try these video lessons and learn fast
1
                (Intro)
okay this is my first tab and i made it by ear its Sonic's theme from his XBOX 360 game,
chorus.

INTRO

1.-------12----10-------12----15--14------------------|
2.----12----12-------12----12-------------------------|
3.----------------------------------------------------|
4.----------------------------------------------------|
5.----------------------------------------------------|
6.----------------------------------------------------|

---play that twice but on the second time end it with 17 on the first string instead of 14----

1.----------------------------------------------------|
2.----------------11----------------11-11-------------|
3.----11--13--14-----11-11--13--14--------------------|
4.----------------------------------------------------|
5.----------------------------------------------------|
6.----------------------------------------------------|

1.----------------------------------------------------|
2.----------------11----------------------------------|
3.----11--13--14-----11-11--13--14--13--11------11----|
4.------------------------------------------12--------|
5.----------------------------------------------------|
6.----------------------------------------------------|

---play this up until the chorus... not sure how many times..---

CHORUS

1.----------------------------------------------------|
2.----------------------------------------------------|
3.----------------------------------------------------|  x2
4.---5------7------9------12--------------------------|
5.---3 x5---5 x8---7 x5---10 x8-----------------------|
6.----------------------------------------------------|

1.-------------------------------------------------------|
2.-------------------------------------------------------|
3.-------------------------------------------------------|  x2
4.---5------7------9--4--5-------------------------------|
5.---3 x5---5 x8---7--2--3-------------------------------|
6.-------------------------------------------------------|

There you go. I'm gonna try and start on the solo, but im really busy and it may take a
cuz this is my first tab and the solos pretty hard. but look up the song on limewire or
course if u have the game just go to the sound area in the Extra or Option menu i forget 
one, but i hope this helped since I havent found a tab for this song.
            
Submit corrections

comments powered by Disqus
↑ Back to top | Crush 40 Tabs for His World. Lyrics for acoustic guitar and electric guitar. 1 Tablatures and chords are parodies/interpretations of the original songs. You may use it for private study, scholarship, research or language learning purposes only