» » »

Crush 40, His World 3 Tabs

Artists:  A B C D E F G H I J K L M N O P Q R S T U V W X Y Z # 

His World 3 Tabs

(ver. 1)
Crush 40 Tabs
 Rating:
3/5 (6 votes)
    His World lessons Tabs too difficult? Try these video lessons and learn fast

WWW.AZCHORDS.COM | Crush 40 Tabs - His World Tabs (ver. 1)


                There are some missing notes in there just before
the sliding section that I can't seem to figure out.
Feel free to let me know if you know what they're supposed to be.

e|--------------------------------------------------------------|
B|--------------------------------------------------------------|
G|-5-9-12-5-9-12-5-9-12-5-9-12-5-9-12-5-9-12--------------------|
D|--------------------------------------------------------------|
A|--------------------------------------------------------------|
E|--------------------------------------------------------------|

e|------------------|
B|---/10--8---------|
G|-----------7------|
D|------------------|
A|------------------|
E|------------------|

e|------------------------------------------------|
B|------------------------------------------------|
G|---------------------7-----7-9-9-9(bend)--9-----|
D|---------5---7/9--------9-----------------------|
A|--5/7-------------------------------------------|
E|------------------------------------------------|


The following part is missing some notes after the 7s9; I'm not sure what they're 
to be, but I can hear them in the track. Let me know if you know what they're supposed to be.

e-------------------------------------------------|
B--8--7-----8(bend)--7----------------------------|
G--------7--------------7s9-----------------------|
D-------------------------------------------------|
A-------------------------------------------------|
E-------------------------------------------------|

Sliding Section:

e|--------------------------------|
B|--------------------------------|
G|--9/12--7/9--4/7--2/4-----------|
D|-----------------------5/7------|
A|----------------------------7---|
E|--------------------------------|


e|------------------------------------------------|
B|------------------------------------------------|
G|--------5s7-----------7(bend)-------------------|
D|------5------------5----------------------------|
A|--5/7---------5/7-------------------------------|
E|------------------------------------------------|


e|----------------------------------------------------------------------|
B|------------------------------------------------12--13(bend)-12-------|
G|------------9-7-9-9s11---9--11--11s12-11--12s14-----------------14--12|
D|--4-5-7-9----------------------------------|--------------------------|
A|----------------------------------------------------------------------|
E|----------------------------------------------------------------------|


Fast Part:

e|-17----17-15-17-15-14--------------------------------------------|
B|----17----------------17-15-17-15-----15-------------------------|
G|----------------------------------16-----16-14-16-14-12-14-12----|
D|---------------------------------------------------------------14|
A|-----------------------------------------------------------------|
E|-----------------------------------------------------------------|

After the fast part:

e|---------------------------------------------------|
B|----------------------17-16-16------17(bend)--17---|
G|-------------14-16--------------16-----------------|
D|----13/14-16---------------------------------------|
A|-14------------------------------------------------|
E|---------------------------------------------------|

Last Bit:

e|--------------------20-19--|
B|--16-17-19-20-19-20--------|
G|---------------------------|
D|---------------------------|
            
Submit corrections

↑ Back to top | Crush 40 Tabs for His World. Lyrics for acoustic guitar and electric guitar. Tablatures and chords are parodies/interpretations of the original songs. You may use it for private study, scholarship, research or language learning purposes only