» » »

Why Part Tabs

Artists:  A B C D E F G H I J K L M N O P Q R S T U V W X Y Z # 

Why Part Tabs

(ver. 1)
Collective Soul Tabs
 Rating:
4/5 (4 votes)
    Why lessons Tabs too difficult? Try these video lessons and learn fast
                (Part)
Here's the new one from Collective Soul.
    Tuned a half step down

    After the funky beggining, the guitar kicks in with:

e--------------------------------------
B---------------------------------------
G-------------------------------------
D-2-2--2--2--2-2----------------------------
A-2-2--2--2--2-2--------------------------
E-0-0--0--0--0-0---------------------------

then it goes:

e-------------------------------
B-------------------------------
G--6---2-------------------------
D--6---2--------------------------
A--4---0---------------------------
E-------------------------------

after you play those two chords, play the beggining riff again

for the chorus play:

e-------------------------------
B-------------------------------
G--6-----2-------------------------
D--6-----2----2--------------------
A--4-----0----2--------------------
E-------------0----------------

I'm not going to spend a half hour of my time telling you how many
times to play each chord, so you will have to figure it out by 
listening to it on the radio.  I don't know the solo.  that's pretty
much the whole song!
            
Submit corrections

↑ Back to top | Collective Soul Tabs for Why. Lyrics for acoustic guitar and electric guitar. Tablatures and chords are parodies/interpretations of the original songs. You may use it for private study, scholarship, research or language learning purposes only