» » »

Collective Soul, Why Bass tabs (ver.1)

Artists:  A B C D E F G H I J K L M N O P Q R S T U V W X Y Z # 

Why Bass tabs (ver.1)

Collective Soul Tabs
Rating:
0/5 (0 votes)
Why lessons Tabs too difficult? Try these video lessons and learn fast
                (Part)
Why (Part 2)
Collective Soul
Blender


		Tuning: E A D G

                         Intro
 G |----------------------------------------
 D |----------------------------------------
 A |--4-44-4-44-----------------------------
 E |----------------------------------------


                        Verse 1
 G |-------------------------------------------
 D |-------------------------------------------
 A |--4-4-4-4-4-4-4-4-4-4-4-4-4-4-4------------
 E |-------------------------------------------  (through whole verse)


                        Pre-Choruse
 G |------------------------------------------------------------------
 D |------------------------------------------------------------------
 A |--2-2-2-2-2-2-2-2-----------------------4-44-4-44-----------------
 E |-----------------------3-3-3-3-3-3-3-3----------------------------

 G |---------------------------------------------
 D |---------------------------------------------
 A |--4-44-4-44----------------------------------
 E |---------------------------------------------


                          Chorus
 G |---------------------------------------------------------------------------------
 D |---------------------------------------------------------------------------------
 A |--2-2-2-2-2-2-2-2----------------------4-4-4-4-4-4-4-4-4-4-4-4-4-4-4-4-----------
 E |-----------------------3-3-3-3-3-3-3-3-------------------------------------------


                           2nd Verse

 G |---------------------------------------------------------
 D |---------------------------------------------------------
 A |--4-44-4-44----------------------------------------------
 E |---------------------1-1--2-2----------------------------
         

                              Bridge
                      (Same as Chorus)


                                 End
 G |-----------------------------------------------------------
 D |-----------------------------------------------------------
 A |--5-55-5-55--55--5-55-5-55---------------------------------
 E |-----------------------------------------------------------


 Listen for correct timing and order. This song rocks! One of Collective Soul's best.
 This tab is dedicated to my lovely girl, Nadia.

 ~The Poet

 "These boots were made for stompin'".
            

comments powered by Disqus
↑ Back to top | Collective Soul Bass for Why. Lyrics for acoustic guitar and electric guitar. Tablatures and chords are parodies/interpretations of the original songs. You may use it for private study, scholarship, research or language learning purposes only