» » »

Collective Soul, Counting The Days Tabs (ver.4)

Artists:  A B C D E F G H I J K L M N O P Q R S T U V W X Y Z # 

Counting The Days Tabs (ver.4)

Collective Soul Tabs
 Rating:
4/5 (4 votes)
Counting The Days lessons Tabs too difficult? Try these video lessons and learn fast
                Counting The Days
Collective Soul


This is actually will be Joel and Deans parts.

Main Riff

Deans
---------------------------------------------|
---------------------------------------------|
---------------------------------------------|
-2-2---2---2-------2---2--5-5-4-3------------|
-2-2---2---2---3---2---2--5-5-4-3------------|
-0-0-3-0---0-3-----0-3-0--5-5-4-3------------|

Joel just before Ed starts vocals after chorus and end every 3rd riff. Twice before the 
chorus and end of the song.
---------------------------------------------|
---------------------------------------------|
---------------------------------------------|
-2-2---2---2------- 2---2--9-9-8-7-----------|
-2-2---2---2--------2---2--9-9-8-7-----------|
-0-0-3-0---0-3-3----0-3-0--9-9-8-7-----------|


After the chorus before main riff a slide from 12 to main riff by Dean

Deans Chorus

---------------------------------------|
---------------------------------------|
-5------------------7------------------|
-3--------3---------7--------9---------|
-3--------3---------5--------9---------|
----------5------------------7---------|
   -Ring-   -Ring-    -Ring-   -Ring---|


Bridge
---------------------------------------------------------------------------|
---------------------------------------------------------------------------|
---------------------------------------------------------------------------|
-2-2---2-0---2-2--22-222-2----5-5---5-0---5-5--55-555-5----7-7---7-0---7-7-|
-2-2---2-0---2-2--00-000-0----5-5---5-0---5-5--55-555-5----7-7---7-0---7-7-|
-0-0---0-0---0-0--00-000-0----3-3---3-0---3-3--33-333-3----5-5---5-0---5-5-|
 Dig in...                    Dig it...                    Dig in...

---------------------|
---------------------|
---------------------|
--7-7-777-7----------|
--7-7-777-7----------|
--5-5-555-5---12/----|
    Yeah Dig...


---------------------------------------------|
---------------------------------------------|
---------------------------------------------|
-2-2---2---2-------2---2--5-5-4-3------------|
-2-2---2---2---3---2---2--5-5-4-3------------|
-0-0-3-0---0-3-----0-3-0--5-5-4-3------------|


Solo During Riff

e -12----10--------------------------------|
B ----12----10-12----10-------10-----------|
G ----------------12----9--12----12-11-9---|
D -----------------------------------------|
A -----------------------------------------|
E -----------------------------------------|

e -12----10--------------------------------|
B ----12----10-12----10----------10----10--|
G ----------------12----9--11-12----12-----|
D -----------------------------------------|
A -----------------------------------------|
E -----------------------------------------|

e ------------------------------------------------------------------|
B ----------------------------------------------------------15-17~--|
G ------------------------------------------------------------------|
D ---12-14-12-14-----12-14-12-14-----12-14-12-14-12-14-14-----------|
A ------------------------------------------------------------------|
E --------------12\---------------12\-------------------------------|

End
Dean
---------------------------------------------|
---------------------------------------------|
---------------------------------------------|
-2-2---2---2-------2---2--5-5-4-3------------|
-2-2---2---2---3---2---2--5-5-4-3------------|
-0-0-3-0---0-3-----0-3-0--5-5-4-3------------|
Joel
---------------------------------------------|
---------------------------------------------|
---------------------------------------------|
-2-2---2---2------- 2---2--9-9-8-7-----------|
-2-2---2---2--------2---2--9-9-8-7-----------|
-0-0-3-0---0-3-3----0-3-0--9-9-8-7-----------|

Also Joel has little Fills in the chorus that have alot of notes I havent got yet. I 
know the last 2 chorus fills are different as well as the first.
            
Submit corrections

comments powered by Disqus
↑ Back to top | Collective Soul Tabs for Counting The Days. Lyrics for acoustic guitar and electric guitar. Tablatures and chords are parodies/interpretations of the original songs. You may use it for private study, scholarship, research or language learning purposes only