>
 >
Counting The Days 5

Counting The Days 5 Guitar Tabs

Collective Soul - Counting The Days 5 chords, tabs, tablatures, lyrics

Guitar lessons | Add/correct | Request | Top 50 tabs Artists:  A B C D E F G H I J K L M N O P Q R S T U V W X Y Z 0-9

Counting The Days 5 Guitar Tabs – Collective Soul

CD, Sheet music, Poster

Do you like Counting The Days 5? Share with your friends now
Bass TabsBass Tabs v2ChordsTabsTabs v2Tabs v3Tabs v4Tabs v5Ukulele

Tuning: Down one half step  EbAbDbGbBbEb

Key
p = pull off
h = hammer on
\ = slide down
/ = slide up


Intro
e|-------------------------------------------------------------------|
B|-------------------------------------------------------------------|
G|-------------------------------------------------------------------|
D|----------------2-------------------------------2---------8-8-7-5--|
A|--2-2---2---2-------2---2-7-7-6-5---2---2---2-------2---2-8-8-7-5--|
E|--0-0-3-0---0-3-----0-3-0-5-5-4-3---0-3-0---0-3-----0-3-0-6-6-5-3--|

e|-----------------------------------------------------------------|
B|-----------------------------------------------------------------|
G|-----------------------------------------------------------------|
D|--2---2---2---2---2---2-7-7-6-5---2---2---2---2---2---2-8-8-7-5--|
A|--2---2---2-------2---2-7-7-6-5---2---2---2-------2---2-8-8-7-5--|
E|--0-3-0---0-3-----0-3-0-5-5-4-3---0-3-0---0-3-----0-3-0-6-6-5-3--|


Verse
e|-----------------------------------------------------------------|
B|-----------------------------------------------------------------|
G|-----------------------------------------------------------------|
D|--2---2---2---2---2---2-7-7-6-5---2---2---2---2---2---2-7-7-6-5--|
A|--2---2---2-------2---2-7-7-6-5---2---2---2-------2---2-7-7-6-5--|
E|--0-3-0---0-3-----0-3-0-5-5-4-3---0-3-0---0-3-----0-3-0-5-5-4-3--|

e|-----------------------------------------------------------------|
B|-----------------------------------------------------------------|
G|-----------------------------------------------------------------|
D|--2---2---2---2---2---2-7-7-6-5---2---2---2---2---2---2-8-8-7-5--|
A|--2---2---2-------2---2-7-7-6-5---2---2---2-------2---2-8-8-7-5--|
E|--0-3-0---0-3-----0-3-0-5-5-4-3---0-3-0---0-3-----0-3-0-6-6-5-3--|


Chorus x2
e|--0--0--0-0-0-0-1--1--1-1-1-1-2--2--2-2-2-2-0--0--0-0-0-0--|
B|--1--1--1-1-1-1-1--1--1-1-1-1-3--3--3-3-3-3-2--2--2-2-2-2--|
G|--0--0--0-0-0-0-0--0--0-0-0-0-2--2--2-2-2-2-2--2--2-2-2-2--|
D|--2--2--2-2-2-2-0--0--0-0-0-0-0--0--0-0-0-0-2--2--2-2-2-2--|
A|--3--3--3-3-3-3-2--2--2-2-2-2---------------0--0--0-0-0-0--|
E|----------------3--3--3-3-3-3------------------------------|


Pre-Verse
e|-------------------------------------------------------------------|
B|-------------------------------------------------------------------|
G|-------------------------------------------------------------------|
D|--2-2---2---2---2---2---2-7-7-6-5---2---2---2---2---2---2-8-8-7-5--|
A|--2-2---2---2-------2---2-7-7-6-5---2---2---2-------2---2-8-8-7-5--|
E|--0-0-3-0---0-3-----0-3-0-5-5-4-3---0-3-0---0-3-----0-3-0-6-6-5-3--|


Verse
e|-----------------------------------------------------------------|
B|-----------------------------------------------------------------|
G|-----------------------------------------------------------------|
D|--2---2---2---2---2---2-7-7-6-5---2---2---2---2---2---2-7-7-6-5--|
A|--2---2---2-------2---2-7-7-6-5---2---2---2-------2---2-7-7-6-5--|
E|--0-3-0---0-3-----0-3-0-5-5-4-3---0-3-0---0-3-----0-3-0-5-5-4-3--|

e|-----------------------------------------------------------------|
B|-----------------------------------------------------------------|
G|-----------------------------------------------------------------|
D|--2---2---2---2---2---2-7-7-6-5---2---2---2---2---2---2-8-8-7-5--|
A|--2---2---2-------2---2-7-7-6-5---2---2---2-------2---2-8-8-7-5--|
E|--0-3-0---0-3-----0-3-0-5-5-4-3---0-3-0---0-3-----0-3-0-6-6-5-3--|


Chorus x2
e|--0--0--0-0-0-0-1--1--1-1-1-1-2--2--2-2-2-2-0--0--0-0-0-0--|
B|--1--1--1-1-1-1-1--1--1-1-1-1-3--3--3-3-3-3-2--2--2-2-2-2--|
G|--0--0--0-0-0-0-0--0--0-0-0-0-2--2--2-2-2-2-2--2--2-2-2-2--|
D|--2--2--2-2-2-2-0--0--0-0-0-0-0--0--0-0-0-0-2--2--2-2-2-2--|
A|--3--3--3-3-3-3-2--2--2-2-2-2---------------0--0--0-0-0-0--|
E|----------------3--3--3-3-3-3------------------------------|


Bridge
e|-------------------------------------------------------------|
B|-------------------------------------------------------------|
G|-------------------------------------------------------------|
D|--2-2---2-2---2-2---2-2--2--2---5-5---5-5---5-5---5-5--5--5--|
A|--2-2---2-2---2-2---2-2--2--2---5-5---5-5---5-5---5-5--5--5--|
E|--0-0---0-0---0-0---0-0--0--0---3-3---3-3---3-3---3-3--3--3--|

e|-------------------------------|
B|-------------------------------|
G|-------------------------------|
D|--7-7---7-7---7-7---7-7--7--7--|
A|--7-7---7-7---7-7---7-7--7--7--|
E|--5-5---5-5---5-5---5-5--5--5--|

e|-------------------------------------------------------------------|
B|-------------------------------------------------------------------|
G|-------------------------------------------------------------------|
D|----------------2-------------------------------2---------8-8-7-5--|
A|--2-2---2---2-------2---2-7-7-6-5---2---2---2-------2---2-8-8-7-5--|
E|--0-0-3-0---0-3-----0-3-0-5-5-4-3---0-3-0---0-3-----0-3-0-6-6-5-3--|


Solo
e|-0-3-0-2-------------------------0-3-0-2-----------------------|
B|---------3-0-----------------------------3-0-----------0--0-0--|
G|-------------2-2/4\2-0-----------------------2-2/4\2-0---------|
D|-----------------------22p0-----------------------------------|
A|-----------------------------2---------------------------------|
E|---------------------------------------------------------------|

e|---------------------------------------------------0--0-0--|
B|-------------------------------------------------0---------|
G|-----------------------------------------------------------|
D|--0-2-0-2-----2---0-2-0-2-2p0-----0-2-0-2--0-2-2-----------|
A|----------0h2-----------------2----------------------------|
E|-----------------------------------------------------------|


Chorus x4
e|--0--0--0-0-0-0-1--1--1-1-1-1-2--2--2-2-2-2-0--0--0-0-0-0--|
B|--1--1--1-1-1-1-1--1--1-1-1-1-3--3--3-3-3-3-2--2--2-2-2-2--|
G|--0--0--0-0-0-0-0--0--0-0-0-0-2--2--2-2-2-2-2--2--2-2-2-2--|
D|--2--2--2-2-2-2-0--0--0-0-0-0-0--0--0-0-0-0-2--2--2-2-2-2--|
A|--3--3--3-3-3-3-2--2--2-2-2-2---------------0--0--0-0-0-0--|
E|----------------3--3--3-3-3-3------------------------------|


Outro
e|-------------------------------------------------------------------|
B|-------------------------------------------------------------------|
G|-------------------------------------------------------------------|
D|--2-2---2---2---2---2---2-7-7-6-5---2---2---2---2---2---2-7-7-6-5--|
A|--2-2---2---2-------2---2-7-7-6-5---2---2---2-------2---2-7-7-6-5--|
E|--0-0-3-0---0-3-----0-3-0-5-5-4-3---0-3-0---0-3-----0-3-0-5-5-4-3--|

e|-----------------------------------------------------------------|
B|-----------------------------------------------------------------|
G|-----------------------------------------------------------------|
D|--2---2---2---2---2---2-7-7-6-5---2---2---2---2---2---2-8-8-7-5--|
A|--2---2---2-------2---2-7-7-6-5---2---2---2-------2---2-8-8-7-5--|
E|--0-3-0---0-3-----0-3-0-5-5-4-3---0-3-0---0-3-----0-3-0-6-6-5-3--|





Comments


Popular Collective Soul tabs & chords
Forgiveness Bass Tabs
Gel 2 Bass Tabs
Never Here Alone Bass Tabs
Adored Chords
All Chords
Youth Chords
Disciplined Breakdown Tabs
Shine 1 Tabs
Adored Ukulele
Ten Years Later Ukulele


Song lyrics



↑ Back to top | Tablatures and chords are parodies/interpretations of the original songs. You may use it for private study, scholarship, research or language learning purposes only
© 2014 AZChords.com Contact us | Privacy policy | DMCA | Add/correct tabs | Request tabs | Top 50 tabs