>
 >
Counting The Days 1

Counting The Days 1 Guitar Tabs

Collective Soul - Counting The Days 1 chords, tabs, tablatures, lyrics

Guitar lessons | Add/correct | Request | Top 50 tabs Artists:  A B C D E F G H I J K L M N O P Q R S T U V W X Y Z 0-9

Counting The Days 1 Guitar Tabs – Collective Soul

CD, Sheet music, Poster

Do you like Counting The Days 1? Share with your friends now
Bass TabsBass Tabs v2ChordsTabsTabs v2Tabs v3Tabs v4Tabs v5Ukulele
Counting The Days
Collective Soul
Youth (2004)

Words & Music by Ed Roland and Collective Soul

GTR I - Eb Tuning "Ed Roland" (eb,Bb,Gb,Db,Ab,Eb)
GTR II - Eb Tuning "Ross Childress" (eb,Bb,Gb,Db,Ab,Eb)
GTR III - Eb Tuning "Dean Roland" (eb,Bb,Gb,Db,Ab,Eb)
GTR IV - Eb Tuning "Guitar Solo" (eb,Bb,Gb,Db,Ab,Eb)

Intro

   GTR III
eb|-------------------------------------------------|
Bb|-------------------------------------------------|
Gb|-------------------------------------------------|
Db|-----------------------2-------------------------|
Ab|-------------------------------------------------|
Eb|--0--0--3b-0-----0--3--------0--3b-0--6--6--5--3-|

   GTR I,II
eb|-------------------------------------------------|
Bb|-------------------------------------------------|
Gb|-------------------------------------------------|
Db|--------------------------------------8--8--7--5-|
Ab|--------------------------------------8--8--7--5-|
Eb|--------------------------------------6--6--5--3-|
  |
  |GTR III
eb|-------------------------------------------------|
Bb|-------------------------------------------------|
Gb|-------------------------------------------------|
Db|-----------------------2-------------------------|
Ab|-------------------------------------------------|
Eb|-----0--3b-0-----0--3--------0--3b-0--6--6--5--3-|

Main Riff

   GTR I
eb|-------------------------------------------------|
Bb|-------------------------------------------------|
Gb|-------------------------------------------------|
Db|-----------------------2--------------7--7--6--5-|
Ab|-----2-----2-----2-----------2-----2--7--7--6--5-|
Eb|-----0--3b-0-----0--3--------0--3b-0--5--5--4--3-|
  |
  |GTR II
eb|-------------------------------------------------|
Bb|-------------------------------------------------|
Gb|-------------------------------------------------|
Db|--------------------------------------7--7--6--5-|
Ab|-----2-----2-----2-----2-----2-----2--7--7--6--5-|
Eb|-----0--3b-0-----0--3--0-----0--3b-0--5--5--4--3-|

   GTR I
eb|-------------------------------------------------|
Bb|-------------------------------------------------|
Gb|-------------------------------------------------|
Db|-----------------------2--------------8--8--7--5-|
Ab|-----2-----2-----2-----------2-----2--8--8--7--5-|
Eb|-----0--3b-0-----0--3--------0--3b-0--6--6--5--3-|
  |
  |GTR II
eb|-------------------------------------------------|
Bb|-------------------------------------------------|
Gb|-------------------------------------------------|
Db|--------------------------------------8--8--7--5-|
Ab|-----2-----2-----2-----2-----2-----2--8--8--7--5-|
Eb|-----0--3b-0-----0--3--0-----0--3b-0--6--6--5--3-|

Verse

   GTR I
eb|-------------------------------------------------|
Bb|-------------------------------------------------|
Gb|-------------------------------------------------|
Db|-----------------------2--------------7--7--6--5-|
Ab|-----2-----2-----2-----------2-----2--7--7--6--5-|
Eb|-----0--3b-0-----0--3--------0--3b-0--5--5--4--3-|
  |
  |GTR II
eb|-------------------------------------------------|
Bb|-------------------------------------------------|
Gb|-------------------------------------------------|
Db|--------------------------------------7--7--6--5-|
Ab|-----2-----2-----2-----2-----2-----2--7--7--6--5-|
Eb|-----0--3b-0-----0--3--0-----0--3b-0--5--5--4--3-|

   GTR I
eb|-------------------------------------------------|
Bb|-------------------------------------------------|
Gb|-------------------------------------------------|
Db|-----------------------2--------------7--7--6--5-|
Ab|-----2-----2-----2-----------2-----2--7--7--6--5-|
Eb|-----0--3b-0-----0--3--------0--3b-0--5--5--4--3-|
  |
  |GTR II
eb|-------------------------------------------------|
Bb|-------------------------------------------------|
Gb|-------------------------------------------------|
Db|--------------------------------------7--7--6--5-|
Ab|-----2-----2-----2-----2-----2-----2--7--7--6--5-|
Eb|-----0--3b-0-----0--3--0-----0--3b-0--5--5--4--3-|

   GTR I
eb|-------------------------------------------------|
Bb|-------------------------------------------------|
Gb|-------------------------------------------------|
Db|-----------------------2--------------7--7--6--5-|
Ab|-----2-----2-----2-----------2-----2--7--7--6--5-|
Eb|-----0--3b-0-----0--3--------0--3b-0--5--5--4--3-|
  |
  |GTR II
eb|-------------------------------------------------|
Bb|-------------------------------------------------|
Gb|-------------------------------------------------|
Db|--------------------------------------7--7--6--5-|
Ab|-----2-----2-----2-----2-----2-----2--7--7--6--5-|
Eb|-----0--3b-0-----0--3--0-----0--3b-0--5--5--4--3-|

   GTR I
eb|-------------------------------------------------|
Bb|-------------------------------------------------|
Gb|-------------------------------------------------|
Db|-----------------------2--------------8--8--7--5-|
Ab|-----2-----2-----2-----------2-----2--8--8--7--5-|
Eb|-----0--3b-0-----0--3--------0--3b-0--6--6--5--3-|
  |
  |GTR II
eb|-------------------------------------------------|
Bb|-------------------------------------------------|
Gb|-------------------------------------------------|
Db|--------------------------------------8--8--7--5-|
Ab|-----2-----2-----2-----2-----2-----2--8--8--7--5-|
Eb|-----0--3b-0-----0--3--0-----0--3b-0--6--6--5--3-|

Chorus

   GTR I
eb|--x-----------------------x-----x-----x----------|
Bb|--1-----------------------1-----1-----1----------|
Gb|--0-----------------------0-----0-----0----------|
Db|--2-----------------------2-----2-----2-----0----|
Ab|--3-----------------------3-----3-----3-----0----|
Eb|--x-----------------------x-----x-----x----------|
  |
  |GTR II
eb|-------------------------------------------------|
Bb|-------------------------------------------------|
Gb|--5-----5-----5-----5-----5-----5-----5-----5----|
Db|--5-----5-----5-----5-----5-----5-----5-----5----|
Ab|--3-----3-----3-----3-----3-----3-----3-----3----|
Eb|-------------------------------------------------|
  |
  |GTR III
eb|-12----------------------------------12----------|
Bb|-------------------------15----------------12----|
Gb|-------------------------------------------------|
Db|-------------------------------------------------|
Ab|-------------------------------------------------|
Eb|-------------------------------------------------|

   GTR I
eb|--3-----------------------3-----3-----3----------|
Bb|--3-----------------------3-----3-----3----------|
Gb|--0-----------------------0-----0-----0----------|
Db|--0-----------------------0-----0-----0-----0----|
Ab|--2-----------------------2-----2-----2-----0----|
Eb|--3-----------------------3-----3-----3----------|
  |
  |GTR II
eb|-------------------------------------------------|
Bb|-------------------------------------------------|
Gb|-------------------------------------------------|
Db|--5-----5-----5-----5-----5-----5-----5-----5----|
Ab|--5-----5-----5-----5-----5-----5-----5-----5----|
Eb|--3-----3-----3-----3-----3-----3-----3-----3----|

   GTR I
eb|--2-----------------------2-----2-----2----------|
Bb|--3-----------------------3-----3-----3----------|
Gb|--2-----------------------2-----2-----2----------|
Db|--0-----------------------0-----0-----0-----0----|
Ab|--0-----------------------0-----0-----0-----0----|
Eb|--x-----------------------x-----x-----x----------|
  |
  |GTR II
eb|-------------------------------------------------|
Bb|-------------------------------------------------|
Gb|--7-----7-----7-----7-----7-----7-----7-----7----|
Db|--7-----7-----7-----7-----7-----7-----7-----7----|
Ab|--5-----5-----5-----5-----5-----5-----5-----5----|
Eb|-------------------------------------------------|

   GTR I
eb|--x-----------------------x-----x-----x----------|
Bb|--2-----------------------2-----2-----2----------|
Gb|--2-----------------------2-----2-----2----------|
Db|--2-----------------------2-----2-----2-----0----|
Ab|--0-----------------------0-----0-----0-----0----|
Eb|--x-----------------------x-----x-----x----------|
  |
  |GTR II
eb|-------------------------------------------------|
Bb|-------------------------------------------------|
Gb|-------------------------------------------------|
Db|--7-----7-----7-----7-----7-----7-----7-----7----|
Ab|--7-----7-----7-----7-----7-----7-----7-----7----|
Eb|--5-----5-----5-----5-----5-----5-----5-----5----|

   GTR I
eb|--x-----------------------x-----x-----x----------|
Bb|--1-----------------------1-----1-----1----------|
Gb|--0-----------------------0-----0-----0----------|
Db|--2-----------------------2-----2-----2-----0----|
Ab|--3-----------------------3-----3-----3-----0----|
Eb|--x-----------------------x-----x-----x----------|
  |
  |GTR II
eb|-------------------------------------------------|
Bb|-------------------------------------------------|
Gb|--5-----5-----5-----5-----5-----5-----5-----5----|
Db|--5-----5-----5-----5-----5-----5-----5-----5----|
Ab|--3-----3-----3-----3-----3-----3-----3-----3----|
Eb|-------------------------------------------------|
  |
  |GTR III
eb|-12----------------------------------12----------|
Bb|-------------------------15----------------12----|
Gb|-------------------------------------------------|
Db|-------------------------------------------------|
Ab|-------------------------------------------------|
Eb|-------------------------------------------------|

   GTR I
eb|--3-----------------------3-----3-----3----------|
Bb|--3-----------------------3-----3-----3----------|
Gb|--0-----------------------0-----0-----0----------|
Db|--0-----------------------0-----0-----0-----0----|
Ab|--2-----------------------2-----2-----2-----0----|
Eb|--3-----------------------3-----3-----3----------|
  |
  |GTR II
eb|-------------------------------------------------|
Bb|-------------------------------------------------|
Gb|-------------------------------------------------|
Db|--5-----5-----5-----5-----5-----5-----5-----5----|
Ab|--5-----5-----5-----5-----5-----5-----5-----5----|
Eb|--3-----3-----3-----3-----3-----3-----3-----3----|

   GTR I
eb|--2-----------------------2-----2-----2----------|
Bb|--3-----------------------3-----3-----3----------|
Gb|--2-----------------------2-----2-----2----------|
Db|--0-----------------------0-----0-----0-----0----|
Ab|--0-----------------------0-----0-----0-----0----|
Eb|--x-----------------------x-----x-----x----------|
  |
  |GTR II
eb|-------------------------------------------------|
Bb|-------------------------------------------------|
Gb|--7-----7-----7-----7-----7-----7-----7-----7----|
Db|--7-----7-----7-----7-----7-----7-----7-----7----|
Ab|--5-----5-----5-----5-----5-----5-----5-----5----|
Eb|-------------------------------------------------|

   GTR I
eb|--x-----------------------x-----x-----x----------|
Bb|--2-----------------------2-----2-----2----------|
Gb|--2-----------------------2-----2-----2----------|
Db|--2-----------------------2-----2-----2-----0----|
Ab|--0-----------------------0-----0-----0-----0----|
Eb|--x-----------------------x-----x-----x----------|
  |
  |GTR II
eb|-------------------------------------------------|
Bb|-------------------------------------------------|
Gb|-------------------------------------------------|
Db|--7-----7-----7-----7-----7-----7-----7-----7----|
Ab|--7-----7-----7-----7-----7-----7-----7-----7----|
Eb|--5-----5-----5-----5-----5-----5-----5-----5----|

Main Riff
Verse

Chorus 2

   GTR I
eb|--x-----------------------x-----x-----x----------|
Bb|--1-----------------------1-----1-----1----------|
Gb|--0-----------------------0-----0-----0----------|
Db|--2-----------------------2-----2-----2-----0----|
Ab|--3-----------------------3-----3-----3-----0----|
Eb|--x-----------------------x-----x-----x----------|
  |
  |GTR II
eb|-------------------------------------------------|
Bb|-------------------------------------------------|
Gb|--5-----5-----5-----5-----5-----5-----5-----5----|
Db|--5-----5-----5-----5-----5-----5-----5-----5----|
Ab|--3-----3-----3-----3-----3-----3-----3-----3----|
Eb|-------------------------------------------------|
  |
  |GTR III
eb|-------------------------------------------------|
Bb|-------------------------------------------------|
Gb|-------------------------------12----------------|
Db|-14----12----14----12----14----------14----12----|
Ab|-------------------------------------------------|
Eb|-------------------------------------------------|

   GTR I
eb|--3-----------------------3-----3-----3----------|
Bb|--3-----------------------3-----3-----3----------|
Gb|--0-----------------------0-----0-----0----------|
Db|--0-----------------------0-----0-----0-----0----|
Ab|--2-----------------------2-----2-----2-----0----|
Eb|--3-----------------------3-----3-----3----------|
  |
  |GTR II
eb|-------------------------------------------------|
Bb|-------------------------------------------------|
Gb|-------------------------------------------------|
Db|--5-----5-----5-----5-----5-----5-----5-----5----|
Ab|--5-----5-----5-----5-----5-----5-----5-----5----|
Eb|--3-----3-----3-----3-----3-----3-----3-----3----|
  |
  |GTR III
eb|-------------------------------------------------|
Bb|-------------------------------------------------|
Gb|-------------------------------12----------------|
Db|-14----12----14----12----14----------14----12----|
Ab|-------------------------------------------------|
Eb|-------------------------------------------------|

   GTR I
eb|--2-----------------------2-----2-----2----------|
Bb|--3-----------------------3-----3-----3----------|
Gb|--2-----------------------2-----2-----2----------|
Db|--0-----------------------0-----0-----0-----0----|
Ab|--0-----------------------0-----0-----0-----0----|
Eb|--x-----------------------x-----x-----x----------|
  |
  |GTR II
eb|-------------------------------------------------|
Bb|-------------------------------------------------|
Gb|--7-----7-----7-----7-----7-----7-----7-----7----|
Db|--7-----7-----7-----7-----7-----7-----7-----7----|
Ab|--5-----5-----5-----5-----5-----5-----5-----5----|
Eb|-------------------------------------------------|
  |
  |GTR III
eb|-------------------------------------------------|
Bb|-------------------------------------------------|
Gb|-------------------------------------------------|
Db|-------14----------14----------14----------14----|
Ab|-12----------12----------12----------12----------|
Eb|-------------------------------------------------|

   GTR I
eb|--x-----------------------x-----x-----x----------|
Bb|--2-----------------------2-----2-----2----------|
Gb|--2-----------------------2-----2-----2----------|
Db|--2-----------------------2-----2-----2-----0----|
Ab|--0-----------------------0-----0-----0-----0----|
Eb|--x-----------------------x-----x-----x----------|
  |
  |GTR II
eb|-------------------------------------------------|
Bb|-------------------------------------------------|
Gb|-------------------------------------------------|
Db|--7-----7-----7-----7-----7-----7-----7-----7----|
Ab|--7-----7-----7-----7-----7-----7-----7-----7----|
Eb|--5-----5-----5-----5-----5-----5-----5-----5----|
  |
  |GTR III
eb|-------------------------------------------------|
Bb|-------------------------------------------------|
Gb|-12----11----------12----11----------------------|
Db|-------------14----------------14----12----------|
Ab|-------------------------------------------14----|
Eb|-------------------------------------------------|

   GTR I
eb|--x-----------------------x-----x-----x----------|
Bb|--1-----------------------1-----1-----1----------|
Gb|--0-----------------------0-----0-----0----------|
Db|--2-----------------------2-----2-----2-----0----|
Ab|--3-----------------------3-----3-----3-----0----|
Eb|--x-----------------------x-----x-----x----------|
  |
  |GTR II
eb|-------------------------------------------------|
Bb|-------------------------------------------------|
Gb|--5-----5-----5-----5-----5-----5-----5-----5----|
Db|--5-----5-----5-----5-----5-----5-----5-----5----|
Ab|--3-----3-----3-----3-----3-----3-----3-----3----|
Eb|-------------------------------------------------|
  |
  |GTR III
eb|-------------------------------------------------|
Bb|-------------------------------------------------|
Gb|-------------------------------12----------------|
Db|-14----12----14----12----14----------14----12----|
Ab|-------------------------------------------------|
Eb|-------------------------------------------------|

   GTR I
eb|--3-----------------------3-----3-----3----------|
Bb|--3-----------------------3-----3-----3----------|
Gb|--0-----------------------0-----0-----0----------|
Db|--0-----------------------0-----0-----0-----0----|
Ab|--2-----------------------2-----2-----2-----0----|
Eb|--3-----------------------3-----3-----3----------|
  |
  |GTR II
eb|-------------------------------------------------|
Bb|-------------------------------------------------|
Gb|-------------------------------------------------|
Db|--5-----5-----5-----5-----5-----5-----5-----5----|
Ab|--5-----5-----5-----5-----5-----5-----5-----5----|
Eb|--3-----3-----3-----3-----3-----3-----3-----3----|
  |
  |GTR III
eb|-------------------------------------------------|
Bb|-------------------------------------------------|
Gb|-------------------------------12----------------|
Db|-14----12----14----12----14----------14----12----|
Ab|-------------------------------------------------|
Eb|-------------------------------------------------|

   GTR I
eb|--2-----------------------2-----2-----2----------|
Bb|--3-----------------------3-----3-----3----------|
Gb|--2-----------------------2-----2-----2----------|
Db|--0-----------------------0-----0-----0-----0----|
Ab|--0-----------------------0-----0-----0-----0----|
Eb|--x-----------------------x-----x-----x----------|
  |
  |GTR II
eb|-------------------------------------------------|
Bb|-------------------------------------------------|
Gb|--7-----7-----7-----7-----7-----7-----7-----7----|
Db|--7-----7-----7-----7-----7-----7-----7-----7----|
Ab|--5-----5-----5-----5-----5-----5-----5-----5----|
Eb|-------------------------------------------------|
  |
  |GTR III
eb|-------------------------------------------------|
Bb|-------------------------------------------------|
Gb|-------------------------------------------------|
Db|-------14----------14----------14----------14----|
Ab|-12----------12----------12----------12----------|
Eb|-------------------------------------------------|

   GTR I
eb|--x-----------------------x-----x-----x----------|
Bb|--2-----------------------2-----2-----2----------|
Gb|--2-----------------------2-----2-----2----------|
Db|--2-----------------------2-----2-----2-----0----|
Ab|--0-----------------------0-----0-----0-----0----|
Eb|--x-----------------------x-----x-----x----------|
  |
  |GTR II
eb|-------------------------------------------------|
Bb|-------------------------------------------------|
Gb|-------------------------------------------------|
Db|--7-----7-----7-----7-----7-----7-----7-----7----|
Ab|--7-----7-----7-----7-----7-----7-----7-----7----|
Eb|--5-----5-----5-----5-----5-----5-----5-----5----|
  |
  |GTR III
eb|-------------------------------------------------|
Bb|-------------------------------------------------|
Gb|-12----11----------12----11----------------------|
Db|-------------14----------------14----12----------|
Ab|-------------------------------------------14----|
Eb|-------------------------------------------------|

Interlude

   GTR I,II
eb|-------------------------------------------------|
Bb|-------------------------------------------------|
Gb|-------------------------------------------------|
Db|-------------------------------------------------|
Ab|--2--2-----2--2-----2--2-----2--2-----2--2--2----|
Eb|--0--0-----0--0-----0--0-----0--0-----0--0--0----|

   GTR I,II
eb|-------------------------------------------------|
Bb|-------------------------------------------------|
Gb|-------------------------------------------------|
Db|-------------------------------------------------|
Ab|--5--5-----5--5-----5--5-----5--5-----5--5--5----|
Eb|--3--3-----3--3-----3--3-----3--3-----3--3--3----|

   GTR I,II
eb|-------------------------------------------------|
Bb|-------------------------------------------------|
Gb|-------------------------------------------------|
Db|-------------------------------------------------|
Ab|--7--7-----7--7-----7--7-----7--7-----7--7-12\---|
Eb|--5--5-----5--5-----5--5-----5--5-----5--5-12\---|

Intro

Guitar Solo

   GTR IV
eb|-15----------14----------12----------------------|
Bb|-------12----------12----------12----15----12----|
Gb|-------------------------------------------------|
Db|-------------------------------------------------|
Ab|-------------------------------------------------|
Eb|-------------------------------------------------|

   GTR IV
eb|-------------------------------------------------|
Bb|-------12----------------------------------------|
Gb|--14---------14----12----------------------------|
Db|-------------------------14----------------------|
Ab|-------------------------------------------------|
Eb|-------------------------------------------------|

   GTR IV
eb|-15----------14----------12----------------------|
Bb|-------12----------12----------12----15----12----|
Gb|-------------------------------------------------|
Db|-------------------------------------------------|
Ab|-------------------------------------------------|
Eb|-------------------------------------------------|

   GTR IV
eb|-------------------------------------------------|
Bb|-------12----------------------------------------|
Gb|--14---------14----12----14----------------------|
Db|-------------------------------------------------|
Ab|-------------------------------------------------|
Eb|-------------------------------------------------|

   GTR IV
eb|-------------------------------------------------|
Bb|-------------------------------------------------|
Gb|-------------------------------------------------|
Db|/12----14----12----14~---------------------------|
Ab|-------------------------------14\---------------|
Eb|-------------------------------------------------|

   GTR IV
eb|-------------------------------------------------|
Bb|-------------------------------------------------|
Gb|-------------------------------------------------|
Db|/12----14----12----14~---------------------------|
Ab|-------------------------------14\---------------|
Eb|-------------------------------------------------|

   GTR IV
eb|-------------------------------------------------|
Bb|-------------------------------------------------|
Gb|-------------------------------------------------|
Db|/12----14----12----14~---------12----14----------|
Ab|-------------------------------------------------|
Eb|-------------------------------------------------|

   GTR IV
eb|-------------------12----------------------------|
Bb|-------------15----------------------------------|
Gb|-------------------------------------------------|
Db|-14~---------------------------------------------|
Ab|-------------------------------------------------|
Eb|-------------------------------------------------|

GTR's I & II play 'Verse'

Chorus 3

   GTR I
eb|--x-----------------------x-----x-----x----------|
Bb|--1-----------------------1-----1-----1----------|
Gb|--0-----------------------0-----0-----0----------|
Db|--2-----------------------2-----2-----2-----0----|
Ab|--3-----------------------3-----3-----3-----0----|
Eb|--x-----------------------x-----x-----x----------|
  |
  |GTR II
eb|-------------------------------------------------|
Bb|-------------------------------------------------|
Gb|--5-----5-----5-----5-----5-----5-----5-----5----|
Db|--5-----5-----5-----5-----5-----5-----5-----5----|
Ab|--3-----3-----3-----3-----3-----3-----3-----3----|
Eb|-------------------------------------------------|
  |
  |GTR III
eb|-------------------------------------------------|
Bb|-------------------------------------------------|
Gb|-------------------------------12----------------|
Db|-14----12----14----12----14----------14----12----|
Ab|-------------------------------------------------|
Eb|-------------------------------------------------|

   GTR I
eb|--3-----------------------3-----3-----3----------|
Bb|--3-----------------------3-----3-----3----------|
Gb|--0-----------------------0-----0-----0----------|
Db|--0-----------------------0-----0-----0-----0----|
Ab|--2-----------------------2-----2-----2-----0----|
Eb|--3-----------------------3-----3-----3----------|
  |
  |GTR II
eb|-------------------------------------------------|
Bb|-------------------------------------------------|
Gb|-------------------------------------------------|
Db|--5-----5-----5-----5-----5-----5-----5-----5----|
Ab|--5-----5-----5-----5-----5-----5-----5-----5----|
Eb|--3-----3-----3-----3-----3-----3-----3-----3----|
  |
  |GTR III
eb|-------------------------------------------------|
Bb|-------------------------------------------------|
Gb|-------------------------------12----------------|
Db|-14----12----14----12----14----------14----12----|
Ab|-------------------------------------------------|
Eb|-------------------------------------------------|
  |
  |GTR IV
eb|-19~---------------------------------------------|
Bb|-------------------------------------------------|
Gb|-------------------------------------------------|
Db|-------------------------------------------------|
Ab|-------------------------------------------------|
Eb|-------------------------------------------------|

   GTR I
eb|--2-----------------------2-----2-----2----------|
Bb|--3-----------------------3-----3-----3----------|
Gb|--2-----------------------2-----2-----2----------|
Db|--0-----------------------0-----0-----0-----0----|
Ab|--0-----------------------0-----0-----0-----0----|
Eb|--x-----------------------x-----x-----x----------|
  |
  |GTR II
eb|-------------------------------------------------|
Bb|-------------------------------------------------|
Gb|--7-----7-----7-----7-----7-----7-----7-----7----|
Db|--7-----7-----7-----7-----7-----7-----7-----7----|
Ab|--5-----5-----5-----5-----5-----5-----5-----5----|
Eb|-------------------------------------------------|
  |
  |GTR III
eb|-------------------------------------------------|
Bb|-------------------------------------------------|
Gb|-------------------------------------------------|
Db|-------14----------14----------14----------14----|
Ab|-12----------12----------12----------12----------|
Eb|-------------------------------------------------|

   GTR I
eb|--x-----------------------x-----x-----x----------|
Bb|--2-----------------------2-----2-----2----------|
Gb|--2-----------------------2-----2-----2----------|
Db|--2-----------------------2-----2-----2-----0----|
Ab|--0-----------------------0-----0-----0-----0----|
Eb|--x-----------------------x-----x-----x----------|
  |
  |GTR II
eb|-------------------------------------------------|
Bb|-------------------------------------------------|
Gb|-------------------------------------------------|
Db|--7-----7-----7-----7-----7-----7-----7-----7----|
Ab|--7-----7-----7-----7-----7-----7-----7-----7----|
Eb|--5-----5-----5-----5-----5-----5-----5-----5----|
  |
  |GTR III
eb|-------------------------------------------------|
Bb|-------------------------------------------------|
Gb|-12----11----------12----11----------------------|
Db|-------------14----------------14----12----------|
Ab|-------------------------------------------14----|
Eb|-------------------------------------------------|

   GTR I
eb|--x-----------------------x-----x-----x----------|
Bb|--1-----------------------1-----1-----1----------|
Gb|--0-----------------------0-----0-----0----------|
Db|--2-----------------------2-----2-----2-----0----|
Ab|--3-----------------------3-----3-----3-----0----|
Eb|--x-----------------------x-----x-----x----------|
  |
  |GTR II
eb|-------------------------------------------------|
Bb|-------------------------------------------------|
Gb|--5-----5-----5-----5-----5-----5-----5-----5----|
Db|--5-----5-----5-----5-----5-----5-----5-----5----|
Ab|--3-----3-----3-----3-----3-----3-----3-----3----|
Eb|-------------------------------------------------|
  |
  |GTR III
eb|-------------------------------------------------|
Bb|-------------------------------------------------|
Gb|-------------------------------12----------------|
Db|-14----12----14----12----14----------14----12----|
Ab|-------------------------------------------------|
Eb|-------------------------------------------------|

   GTR I
eb|--3-----------------------3-----3-----3----------|
Bb|--3-----------------------3-----3-----3----------|
Gb|--0-----------------------0-----0-----0----------|
Db|--0-----------------------0-----0-----0-----0----|
Ab|--2-----------------------2-----2-----2-----0----|
Eb|--3-----------------------3-----3-----3----------|
  |
  |GTR II
eb|-------------------------------------------------|
Bb|-------------------------------------------------|
Gb|-------------------------------------------------|
Db|--5-----5-----5-----5-----5-----5-----5-----5----|
Ab|--5-----5-----5-----5-----5-----5-----5-----5----|
Eb|--3-----3-----3-----3-----3-----3-----3-----3----|
  |
  |GTR III
eb|-------------------------------------------------|
Bb|-------------------------------------------------|
Gb|-------------------------------12----------------|
Db|-14----12----14----12----14----------14----12----|
Ab|-------------------------------------------------|
Eb|-------------------------------------------------|

   GTR I
eb|--2-----------------------2-----2-----2----------|
Bb|--3-----------------------3-----3-----3----------|
Gb|--2-----------------------2-----2-----2----------|
Db|--0-----------------------0-----0-----0-----0----|
Ab|--0-----------------------0-----0-----0-----0----|
Eb|--x-----------------------x-----x-----x----------|
  |
  |GTR II
eb|-------------------------------------------------|
Bb|-------------------------------------------------|
Gb|--7-----7-----7-----7-----7-----7-----7-----7----|
Db|--7-----7-----7-----7-----7-----7-----7-----7----|
Ab|--5-----5-----5-----5-----5-----5-----5-----5----|
Eb|-------------------------------------------------|
  |
  |GTR III
eb|-------------------------------------------------|
Bb|-------------------------------------------------|
Gb|-------------------------------------------------|
Db|-------14----------14----------14----------14----|
Ab|-12----------12----------12----------12----------|
Eb|-------------------------------------------------|

   GTR I
eb|--x-----------------------x-----x-----x----------|
Bb|--2-----------------------2-----2-----2----------|
Gb|--2-----------------------2-----2-----2----------|
Db|--2-----------------------2-----2-----2-----0----|
Ab|--0-----------------------0-----0-----0-----0----|
Eb|--x-----------------------x-----x-----x----------|
  |
  |GTR II
eb|-------------------------------------------------|
Bb|-------------------------------------------------|
Gb|-------------------------------------------------|
Db|--7-----7-----7-----7-----7-----7-----7-----7----|
Ab|--7-----7-----7-----7-----7-----7-----7-----7----|
Eb|--5-----5-----5-----5-----5-----5-----5-----5----|
  |
  |GTR III
eb|-------------------------------------------------|
Bb|-------------------------------------------------|
Gb|-12----11----------12----11----------------------|
Db|-------------14----------------14----12----------|
Ab|-------------------------------------------14----|
Eb|-------------------------------------------------|

Chorus 2

Outro

   GTR I
eb|-------------------------------------------------|
Bb|-------------------------------------------------|
Gb|-------------------------------------------------|
Db|-----------------------2--------------7--7--6--5-|
Ab|--2--2-----2-----2-----------2-----2--7--7--6--5-|
Eb|--0--0--3b-0-----0--3--------0--3b-0--5--5--4--3-|
  |
  |GTR II
eb|-------------------------------------------------|
Bb|-------------------------------------------------|
Gb|-------------------------------------------------|
Db|--------------------------------------7--7--6--5-|
Ab|--2--2-----2-----2-----2-----2-----2--7--7--6--5-|
Eb|--0--0--3b-0-----0--3--0-----0--3b-0--5--5--4--3-|
  |
  |GTR III
eb|-------------------------------------------------|
Bb|-------------------------------------------------|
Gb|-------------------------------------------------|
Db|/14~---------------------------------------------|
Ab|-------------------------------------------------|
Eb|-------------------------------------------------|

   GTR I
eb|-------------------------------------------------|
Bb|-------------------------------------------------|
Gb|-------------------------------------------------|
Db|-----------------------2--------------7--7--6--5-|
Ab|-----2-----2-----2-----------2-----2--7--7--6--5-|
Eb|-----0--3b-0-----0--3--------0--3b-0--5--5--4--3-|
  |
  |GTR II
eb|-------------------------------------------------|
Bb|-------------------------------------------------|
Gb|-------------------------------------------------|
Db|--------------------------------------7--7--6--5-|
Ab|-----2-----2-----2-----2-----2-----2--7--7--6--5-|
Eb|-----0--3b-0-----0--3--0-----0--3b-0--5--5--4--3-|

   GTR I
eb|-------------------------------------------------|
Bb|-------------------------------------------------|
Gb|-------------------------------------------------|
Db|-----------------------2--------------7--7--6--5-|
Ab|-----2-----2-----2-----------2-----2--7--7--6--5-|
Eb|-----0--3b-0-----0--3--------0--3b-0--5--5--4--3-|
  |
  |GTR II
eb|-------------------------------------------------|
Bb|-------------------------------------------------|
Gb|-------------------------------------------------|
Db|--------------------------------------7--7--6--5-|
Ab|-----2-----2-----2-----2-----2-----2--7--7--6--5-|
Eb|-----0--3b-0-----0--3--0-----0--3b-0--5--5--4--3-|

   GTR I
eb|-------------------------------------------------|
Bb|-------------------------------------------------|
Gb|-------------------------------------------------|
Db|-----------------------2--------------8--8--7--5-|
Ab|-----2-----2-----2-----------2-----2--8--8--7--5-|
Eb|-----0--3b-0-----0--3--------0--3b-0--6--6--5--3-|
  |
  |GTR II
eb|-------------------------------------------------|
Bb|-------------------------------------------------|
Gb|-------------------------------------------------|
Db|--------------------------------------8--8--7--5-|
Ab|-----2-----2-----2-----2-----2-----2--8--8--7--5-|
Eb|-----0--3b-0-----0--3--0-----0--3b-0--6--6--5--3-|


| b  bend
| r  release bend
|trp triplet
|PH. pinch harmonic
|fbk feedback
| .  palm-mute
| /  slide up
| \  slide down
| h  hammer-on
| p  pull-off
| ~  vibrato
|(7) harmonic
| x  Mute note
===============================================================================





Comments


Popular Collective Soul tabs & chords
Run Bass Tabs
Not The One Chords
Ood Morning After All Chords
Shine Chords
Ten Years Later 1 Chords
December 2 Tabs
Persuasion Of You Tabs
Skin  Tabs
Why Tabs
Adored Ukulele


Song lyrics



↑ Back to top | Tablatures and chords are parodies/interpretations of the original songs. You may use it for private study, scholarship, research or language learning purposes only
© 2014 AZChords.com Contact us | Privacy policy | DMCA | Add/correct tabs | Request tabs | Top 50 tabs