» » »

Better Now Tabs (ver.3)

Artists:  A B C D E F G H I J K L M N O P Q R S T U V W X Y Z # 

Better Now Tabs (ver.3)

Collective Soul
Rating:
5/5 (7 votes)

Hard to play? Try these video lessons and learn fast.
                
Note: I must say, Version 1 of Better now is 100% correct. 
      However, he/she missed the chorus and a little bit.

Intro:

e|---------|
B|---------|
G|-4-4-4-4-|
D|-4-4-4-4-|
A|-2-2-2-2-|
E|---------|
(With a pitch effect)

Verse:

e|----------------------------------------|
B|----------------------------------------|
G|-4-4-4--2----2-2-2-4-4-4--4-7-7-2-2-2-2-| X4
D|-4-4-4--2-2--2-2-2-4-4-4--4-7-7-2-2-2-2-|
A|-2-2-2--0-2--0-0-0-2-2-2--2-5-5-0-0-0-0-|
E|----------0-----------------------------|
 (Yeah, Yeah! Oh, I'm newly...)

Chorus:

e|-------------------------------------------------|
B|-------------------------------------------------|
G|-4-4-X-4-4-4-7-7-X-7-7-7-2-2-X-2-2-2-----2-2-2-2-| X2
D|-4-4-X-4-4-4-7-7-X-7-7-7-2-2-X-2-2-2-2-2-2-2-2-2-|
A|-2-2-X-2-2-2-5-5-X-5-5-5-0-0-X-0-0-0-2-2-0-0-0-0-|
E|-------------------------------------0-0---------|
 (Let the word out! I've got to...)

Verse:

(Guitar 2 will hit a B note on G [4th fret]
 with the "Step Effect" to make the wierd sound)

Chorus:

(Guitar 2 then does this while Guitar 1 plays chorus. Note
 that this is not found on the Youth album, only on "Home"
 and when CS does live performances.)
e|----------------------------------------------------------|
B|-------15-14--------17-16-----12-13-12--------------------|
G|----14-----------16------------------------14-------16----|
D|-14-----------16-----------12-----------14----14-16----16-|
A|----------------------------------------------------------|
E|----------------------------------------------------------|
 (A wah pedal is used as well)

Interlude:
e|---------------------------|
B|---------------------------|
G|---------------------------|
D|---------------------------|
A|-X-X-X-X-X-X-X-X-X-X-X-X-X-|
E|---------------------------|
(The worlds done shakin'...)

Short and sweet. Truly a great song by my favorite and
highly underrated band. Enjoy guys.

Road Map:
-Intro
-Verse
-Chorus
-Verse
-Chorus
-Interlude
-Chorus
(After this is purely up to you.)
            
Hard to play? Try these video lessons and learn fast. | Correct




comments powered by Disqus
↑ Back to top | Tablatures and chords are parodies/interpretations of the original songs. You may use it for private study, scholarship, research or language learning purposes only