>
 >
Better Now

Better Now Bass Tabs

Collective Soul - Better Now chords, tabs, tablatures, lyrics

Guitar lessons | Add/correct | Request | Top 50 tabs Artists:  A B C D E F G H I J K L M N O P Q R S T U V W X Y Z 0-9

Better Now Bass Tabs – Collective Soul

CD, Sheet music, Poster

Do you like Better Now? Share with your friends now
Bass TabsBass Tabs v2TabsTabs v2Tabs v3
Band: Collective Soul

Legend:
R - Rest
w - whole note
q - quarter note
e - eighth note
(1) - note tied to previous note. Don't strum it.
/ - slide up
\ - slide down

BPM - 123

This tab is perfect.  I sat and listened to the song repeatedly while
tabbing it out using Guitar Pro. Then I synced them together to play at the
same time and it's a perfect match, notes and timing. Enjoy.

Intro:
(0:00)
G||-----------|-----------|-----------|-----------||
D||-----------|-----2-0---|-----------|-----------||
A||-2-2-2-2-R-|-R-R-----0-|-2-2-2-2-R-|-R-R---0---||
E||-----------|-----------|-----------|-----2---2-||
    e e e e h   h e e e e   e e e e h   h e e e e


G||-----------|-----------|-----------|-----------||
D||-----------|-----------|-----------|-----2-0---||
A||-R---------|-R---------|-R---------|-R-R-----0-||
E||-----------|-----------|-----------|-----------||
    w           w           w           h e e e e

Verse:                                  _____________ ______________
(0:16)                                 /1.           /2
G||------------|-----------|-----------|------------|---------------||
D||o-----------|-----2-0---|-----------|-----------o|-------0---0---||
A||o-2-2-2-R-R-|-R-R-----0-|-2-2-2-R-R-|-R-R---0---o|-R-R-----------||
E||------------|-----------|-----------|-----2---2--|-----2---2---2-||
     e e e e h   h e e e e   e e e e h   h e e e e    q e e e e e e

Chorus:
(0:32)
G||------------------|-------------------|-------------------|
D||o-----------0-4-0-|-(0)-0-----0-------|-----------0-------|
A||o-2-R---R-2-------|-------0-R---4-2-0-|-(0)-0-4-R---4-2---|
E||------2-----------|-------------------|-----------------3-|
     e e e e e e e e    e  e e e e e e e    e  e e e e e e e

G||------------------||
D||-----------------o||
A||-------R-0-0-4-0-o||
E||-(3)-3------------||
     e  e e q e e e    

Bridge 1
(0:48)
G||------------------|-------------------|-------------------|
D||------------------|-------------------|-------------------|
A||-R----------------|-R-----------------|-R-----------------|
E||------------------|-------------------|-------------------|
    w                  w                   w

G||------------------||
D||------------------||
A||-R-R--------------||
E||-----------2/10\3-||
    h e       e e  e

Verse:
(0:56)
G||------------------|-----------------|-----------------|
D||o-----------------|-----------2-0---|-----------------|
A||o-2-2-2-2-2-2-2-2-|-2-2-2-2-2-----0-|-2-2-2-2-2-2-2-2-|
E||------------------|-----------------|-----------------|
     e e e e e e e e   e e e e e e e e   e e e e e e e e
   __________________ _________________
  /1.                /2.
G||------------------|-----------------||
D||-----------------o|---------0-------||
A||-2-2-2-2-2---0---o|-2-2-2-------0---||
E||-----------2---2--|-------2---2---2-||
    e e e e e e e e    e e e e e e e e

Chorus:
(1:11)
G||------------------|-------------------|-------------------|
D||o-----------0-4-0-|-(0)-0-----0-------|-----------0-------|
A||o-2-R---R-2-------|-------0-R---4-2-0-|-(0)-0-4-R---4-2---|
E||------2-----------|-------------------|-----------------3-|
     e e e e e e e e    e  e e e e e e e    e  e e e e e e e

G||------------------||
D||-----------------o||
A||-------R-0-0-4-0-o||
E||-(3)-3------------||
     e  e e q e e e

Bridge 2 - The worlds done shaking...
(1:27)
G||-----------------|-----------------|-----------------|
D||-----------------|-----------------|-----------------|
A||-R---------------|-R---------------|-R---------------|
E||-----------------|-----------------|-----------------|
    w                 w                 w

G||-----------------|-4-4-4-4-4-4-4-4-|-4-4-4-4-4-4-4-4-|
D||-----------------|-----------------|-----------------|
A||-R---------------|-----------------|-----------------|
E||-----------------|-----------------|-----------------|
    w                 e e e e e e e e   e e e e e e e e

G||-4-4-4-4-4-4-4-4-|-4-4-4-4-4-4-4-4-|-----------------|
D||-----------------|-----------------|-----------------|
A||-----------------|-----------------|-R---------------|
E||-----------------|-----------------|-----------------|
    e e e e e e e e   e e e e e e e e   w

G||-----------------|-----------------|-----------------|
D||-----------------|-----------------|-----------------|
A||-R---------------|-R---------------|-R---------------|
E||-----------------|-----------------|-----------------|
    w                 w                 w

G||-----------------|-----------------|-----------------|
D||-----------------|-----------------|-----------------|
A||-2-2-2-2-2-2-2-2-|-2-2-2-2-2-2-2-2-|-2-2-2-2-2-2-2-2-|
E||-----------------|-----------------|-----------------|
    e e e e e e e e   e e e e e e e e   e e e e e e e e

G||------------------||
D||------------------||
A||-2-2-2-2-2--------||
E||-----------2/10\3-||
    e e e e e e e  e

Chorus (repeat 4x)
(1:58)
G||------------------|-------------------|-------------------|
D||o-----------0-4-0-|-(0)-0-----0-------|-----------0-------|
A||o-2-R---R-2-------|-------0-R---4-2-0-|-(0)-0-4-R---4-2---|
E||------2-----------|-------------------|-----------------3-|
     e e e e e e e e    e  e e e e e e e    e  e e e e e e e

G||------------------||
D||-----------------o||
A||-------R-0-0-4-0-o||
E||-(3)-3------------||
     e  e e q e e e

Outro
(2:29)
G||------------------|-------------------|-------------------|
D||o-----------0-4-0-|-(0)-0-----0-------|-----------0-------|
A||o-2-2---R-2-------|-------0-R---4-2-0-|-(0)-0-4-R---4-2---|
E||------2-----------|-------------------|-----------------3-|
     e e e e e e e e    e  e e e e e e e    e  e e e e e e e

G||------------------||
D||-----------------o||
A||-------R-0-0-4-0-o||
E||-(3)-3------------||
     e  e e q e e e


After this, the bassist just runs variations of the chorus.  Instead
of tabbing it out, I'll leave it up to you to play around with it for
a few bars as the music fades out.  Have Fun.





Comments


Popular Collective Soul tabs & chords
All That I Know Bass Tabs
December Bass Tabs
How Do You Love 2 Chords
Perfect To Stay 4 Chords
Smashing Young Man 1 Chords
Adored Tabs
Persasion Of You Tabs
Pretty Donna Tabs
She Said 1 Tabs
Forgiveness Ukulele


Song lyrics



↑ Back to top | Tablatures and chords are parodies/interpretations of the original songs. You may use it for private study, scholarship, research or language learning purposes only
© 2014 AZChords.com Contact us | Privacy policy | DMCA | Add/correct tabs | Request tabs | Top 50 tabs