>
 >
Bearing Witness 1

Bearing Witness 1 Guitar Tabs

Collective Soul - Bearing Witness 1 chords, tabs, tablatures, lyrics

Guitar lessons | Add/correct | Request | Top 50 tabs Artists:  A B C D E F G H I J K L M N O P Q R S T U V W X Y Z 0-9

Bearing Witness 1 Guitar Tabs – Collective Soul

CD, Sheet music, Poster

Do you like Bearing Witness 1? Share with your friends now
Bass TabsChordsChords v2TabsTabs v2UkuleleUkulele v2
-----------------------------------------------------------------------------
                   
                    Collective Soul - Bearing Witness (GUITAR)
                       
-----------------------------------------------------------------------------

Tuning: Half Step Down

=============================================================================



Guitar 1



             E  E  E  E  E  E  E  E     E  E  E  E  E  E  E  E   
E||-------|--------------------------|--2--2--2--2--2--2--2--2--|
B||-------|--2--2--2--2--2--2--2--2--|--3--3--3--3--3--3--3--3--|
G||-------|--2--2--2--2--2--2--2--2--|--2--2--2--2--2--2--2--2--|
D||-------|--4--4--4--4--4--4--4--4--|--0--0--0--0--0--0--0--0--|
A||-------|--4--4--4--4--4--4--4--4--|--------------------------|
E||-------|--2--2--2--2--2--2--2--2--|--------------------------|


  E  E  E  E  E  E  E  E     E  E  E  E  E  E  E  E   
--0--0--0--0--0--0--0--0--|--0--0--0--0--0--0--0--0--|
--2--2--2--2--2--2--2--2--|--0--0--0--0--0--0--0--0--|
--2--2--2--2--2--2--2--2--|--1--1--1--1--1--1--1--1--|
--2--2--2--2--2--2--2--2--|--2--2--2--2--2--2--2--2--|
--0--0--0--0--0--0--0--0--|--2--2--2--2--2--2--2--2--|
--------------------------|--0--0--0--0--0--0--0--0--|


  E  E  E  E  E  E  E  E     E  E  E  E  E  E  E  E   
--------------------------|--2--2--2--2--2--2--2--2--|
--2--2--2--2--2--2--2--2--|--3--3--3--3--3--3--3--3--|
--2--2--2--2--2--2--2--2--|--2--2--2--2--2--2--2--2--|
--4--4--4--4--4--4--4--4--|--0--0--0--0--0--0--0--0--|
--4--4--4--4--4--4--4--4--|--------------------------|
--2--2--2--2--2--2--2--2--|--------------------------|


  E  E  E  E  E  E  E  E     E  E  E  E  E  E  E  E   
--0--0--0--0--0--0--0--0--|--0--0--0--0--0--0--0--0--|
--2--2--2--2--2--2--2--2--|--0--0--0--0--0--0--0--0--|
--2--2--2--2--2--2--2--2--|--1--1--1--1--1--1--1--1--|
--2--2--2--2--2--2--2--2--|--2--2--2--2--2--2--2--2--|
--0--0--0--0--0--0--0--0--|--2--2--2--2--2--2--2--2--|
--------------------------|--0--0--0--0--0--0--0--0--|


  E  E  E  E  E  E  E  E     E  E  E  E  E  E  E  E   
--------------------------|--2--2--2--2--2--2--2--2--|
--2--2--2--2--2--2--2--2--|--3--3--3--3--3--3--3--3--|
--2--2--2--2--2--2--2--2--|--2--2--2--2--2--2--2--2--|
--4--4--4--4--4--4--4--4--|--0--0--0--0--0--0--0--0--|
--4--4--4--4--4--4--4--4--|--------------------------|
--2--2--2--2--2--2--2--2--|--------------------------|


  E  E  E  E  E  E  E  E     E  E  E  E  E  E  E  E   
--0--0--0--0--0--0--0--0--|--0--0--0--0--0--0--0--0--|
--2--2--2--2--2--2--2--2--|--0--0--0--0--0--0--0--0--|
--2--2--2--2--2--2--2--2--|--1--1--1--1--1--1--1--1--|
--2--2--2--2--2--2--2--2--|--2--2--2--2--2--2--2--2--|
--0--0--0--0--0--0--0--0--|--2--2--2--2--2--2--2--2--|
--------------------------|--0--0--0--0--0--0--0--0--|


  E  E  E  E  E  E  E  E     E  E  E  E  E  E  E  E   
--------------------------|--2--2--2--2--2--2--2--2--|
--2--2--2--2--2--2--2--2--|--3--3--3--3--3--3--3--3--|
--2--2--2--2--2--2--2--2--|--2--2--2--2--2--2--2--2--|
--4--4--4--4--4--4--4--4--|--0--0--0--0--0--0--0--0--|
--4--4--4--4--4--4--4--4--|--------------------------|
--2--2--2--2--2--2--2--2--|--------------------------|


  E  E  E  E  E  E  E  E     E  E  E  E  E  E  E  E   
--0--0--0--0--0--0--0--0--|--0--0--0--0--0--0--0--0--|
--2--2--2--2--2--2--2--2--|--0--0--0--0--0--0--0--0--|
--2--2--2--2--2--2--2--2--|--1--1--1--1--1--1--1--1--|
--2--2--2--2--2--2--2--2--|--2--2--2--2--2--2--2--2--|
--0--0--0--0--0--0--0--0--|--2--2--2--2--2--2--2--2--|
--------------------------|--0--0--0--0--0--0--0--0--|


  E  E  E  E  E  E  E  E     E  E  E  E  E  E  E  E   
--2--2--2--2--2--2--2--2--|--0--0--0--0--0--0--0--0--|
--3--3--3--3--3--3--3--3--|--2--2--2--2--2--2--2--2--|
--2--2--2--2--2--2--2--2--|--2--2--2--2--2--2--2--2--|
--0--0--0--0--0--0--0--0--|--2--2--2--2--2--2--2--2--|
--------------------------|--0--0--0--0--0--0--0--0--|
--------------------------|--------------------------|


  E  E  E  E  E  E  E  E     E  E  E  E  E  E  E  E   
--2--2--2--2--2--2--2--2--|--0--0--0--0--0--0--0--0--|
--3--3--3--3--3--3--3--3--|--2--2--2--2--2--2--2--2--|
--2--2--2--2--2--2--2--2--|--2--2--2--2--2--2--2--2--|
--0--0--0--0--0--0--0--0--|--2--2--2--2--2--2--2--2--|
--------------------------|--0--0--0--0--0--0--0--0--|
--------------------------|--------------------------|


  E  E  E  E  E  E  E  E     E  E  E  E  E  E  E  E   
--2--2--2--2--2--2--2--2--|--0--0--0--0--0--0--0--0--|
--3--3--3--3--3--3--3--3--|--2--2--2--2--2--2--2--2--|
--2--2--2--2--2--2--2--2--|--2--2--2--2--2--2--2--2--|
--0--0--0--0--0--0--0--0--|--2--2--2--2--2--2--2--2--|
--------------------------|--0--0--0--0--0--0--0--0--|
--------------------------|--------------------------|


  E  E  E  E  E  E  E  E     E  E  E  E  E  E  E  E   
--------------------------|--------------------------|
--4--4--4--4--4--4--4--4--|--4--4--4--4--4--4--4--4--|
--4--4--4--4--4--4--4--4--|--4--4--4--4--4--4--4--4--|
--4--4--4--4--4--4--4--4--|--4--4--4--4--4--4--4--4--|
--2--2--2--2--2--2--2--2--|--2--2--2--2--2--2--2--2--|
--------------------------|--------------------------|


  E  E  E  E  E  E  E  E     E  E  E  E  E  E  E  E   
--2--2--2--2--2--2--2--2--|--2--2--2--2--2--2--2--2--|
--3--3--3--3--3--3--3--3--|--3--3--3--3--3--3--3--3--|
--2--2--2--2--2--2--2--2--|--2--2--2--2--2--2--2--2--|
--0--0--0--0--0--0--0--0--|--0--0--0--0--0--0--0--0--|
--------------------------|--------------------------|
--------------------------|--------------------------|


  E  E  E  E  E  E  E  E     E  E  E  E  E  E  E  E   
--------------------------|--2--2--2--2--2--2--2--2--|
--2--2--2--2--2--2--2--2--|--3--3--3--3--3--3--3--3--|
--2--2--2--2--2--2--2--2--|--2--2--2--2--2--2--2--2--|
--4--4--4--4--4--4--4--4--|--0--0--0--0--0--0--0--0--|
--4--4--4--4--4--4--4--4--|--------------------------|
--2--2--2--2--2--2--2--2--|--------------------------|


  E  E  E  E  E  E  E  E     E  E  E  E  E  E  E  E   
--0--0--0--0--0--0--0--0--|--0--0--0--0--0--0--0--0--|
--2--2--2--2--2--2--2--2--|--0--0--0--0--0--0--0--0--|
--2--2--2--2--2--2--2--2--|--1--1--1--1--1--1--1--1--|
--2--2--2--2--2--2--2--2--|--2--2--2--2--2--2--2--2--|
--0--0--0--0--0--0--0--0--|--2--2--2--2--2--2--2--2--|
--------------------------|--0--0--0--0--0--0--0--0--|


  E  E  E  E  E  E  E  E     E  E  E  E  E  E  E  E   
--------------------------|--2--2--2--2--2--2--2--2--|
--2--2--2--2--2--2--2--2--|--3--3--3--3--3--3--3--3--|
--2--2--2--2--2--2--2--2--|--2--2--2--2--2--2--2--2--|
--4--4--4--4--4--4--4--4--|--0--0--0--0--0--0--0--0--|
--4--4--4--4--4--4--4--4--|--------------------------|
--2--2--2--2--2--2--2--2--|--------------------------|


  E  E  E  E  E  E  E  E     E  E  E  E  E  E  E  E   
--0--0--0--0--0--0--0--0--|--0--0--0--0--0--0--0--0--|
--2--2--2--2--2--2--2--2--|--0--0--0--0--0--0--0--0--|
--2--2--2--2--2--2--2--2--|--1--1--1--1--1--1--1--1--|
--2--2--2--2--2--2--2--2--|--2--2--2--2--2--2--2--2--|
--0--0--0--0--0--0--0--0--|--2--2--2--2--2--2--2--2--|
--------------------------|--0--0--0--0--0--0--0--0--|


  E  E  E  E  E  E  E  E     E  E  E  E  E  E  E  E   
--------------------------|--2--2--2--2--2--2--2--2--|
--2--2--2--2--2--2--2--2--|--3--3--3--3--3--3--3--3--|
--2--2--2--2--2--2--2--2--|--2--2--2--2--2--2--2--2--|
--4--4--4--4--4--4--4--4--|--0--0--0--0--0--0--0--0--|
--4--4--4--4--4--4--4--4--|--------------------------|
--2--2--2--2--2--2--2--2--|--------------------------|


  E  E  E  E  E  E  E  E     E  E  E  E  E  E  E  E   
--0--0--0--0--0--0--0--0--|--0--0--0--0--0--0--0--0--|
--2--2--2--2--2--2--2--2--|--0--0--0--0--0--0--0--0--|
--2--2--2--2--2--2--2--2--|--1--1--1--1--1--1--1--1--|
--2--2--2--2--2--2--2--2--|--2--2--2--2--2--2--2--2--|
--0--0--0--0--0--0--0--0--|--2--2--2--2--2--2--2--2--|
--------------------------|--0--0--0--0--0--0--0--0--|


  E  E  E  E  E  E  E  E     E  E  E  E  E  E  E  E   
--------------------------|--2--2--2--2--2--2--2--2--|
--2--2--2--2--2--2--2--2--|--3--3--3--3--3--3--3--3--|
--2--2--2--2--2--2--2--2--|--2--2--2--2--2--2--2--2--|
--4--4--4--4--4--4--4--4--|--0--0--0--0--0--0--0--0--|
--4--4--4--4--4--4--4--4--|--------------------------|
--2--2--2--2--2--2--2--2--|--------------------------|


  E  E  E  E  E  E  E  E     E  E  E  E  E  E  E  E   
--0--0--0--0--0--0--0--0--|--0--0--0--0--0--0--0--0--|
--2--2--2--2--2--2--2--2--|--0--0--0--0--0--0--0--0--|
--2--2--2--2--2--2--2--2--|--1--1--1--1--1--1--1--1--|
--2--2--2--2--2--2--2--2--|--2--2--2--2--2--2--2--2--|
--0--0--0--0--0--0--0--0--|--2--2--2--2--2--2--2--2--|
--------------------------|--0--0--0--0--0--0--0--0--|


  E  E  E  E  E  E  E  E     E  E  E  E  E  E  E  E   
--2--2--2--2--2--2--2--2--|--0--0--0--0--0--0--0--0--|
--3--3--3--3--3--3--3--3--|--2--2--2--2--2--2--2--2--|
--2--2--2--2--2--2--2--2--|--2--2--2--2--2--2--2--2--|
--0--0--0--0--0--0--0--0--|--2--2--2--2--2--2--2--2--|
--------------------------|--0--0--0--0--0--0--0--0--|
--------------------------|--------------------------|


  E  E  E  E  E  E  E  E     E  E  E  E  E  E  E  E   
--2--2--2--2--2--2--2--2--|--0--0--0--0--0--0--0--0--|
--3--3--3--3--3--3--3--3--|--2--2--2--2--2--2--2--2--|
--2--2--2--2--2--2--2--2--|--2--2--2--2--2--2--2--2--|
--0--0--0--0--0--0--0--0--|--2--2--2--2--2--2--2--2--|
--------------------------|--0--0--0--0--0--0--0--0--|
--------------------------|--------------------------|


  E  E  E  E  E  E  E  E     E  E  E  E  E  E  E  E   
--2--2--2--2--2--2--2--2--|--0--0--0--0--0--0--0--0--|
--3--3--3--3--3--3--3--3--|--2--2--2--2--2--2--2--2--|
--2--2--2--2--2--2--2--2--|--2--2--2--2--2--2--2--2--|
--0--0--0--0--0--0--0--0--|--2--2--2--2--2--2--2--2--|
--------------------------|--0--0--0--0--0--0--0--0--|
--------------------------|--------------------------|


  E  E  E  E  E  E  E  E     E  E  E  E  E  E  E  E   
--------------------------|--------------------------|
--4--4--4--4--4--4--4--4--|--4--4--4--4--4--4--4--4--|
--4--4--4--4--4--4--4--4--|--4--4--4--4--4--4--4--4--|
--4--4--4--4--4--4--4--4--|--4--4--4--4--4--4--4--4--|
--2--2--2--2--2--2--2--2--|--2--2--2--2--2--2--2--2--|
--------------------------|--------------------------|


  E  E  E  E  E  E  E  E     E  E  E  E  E  E  E  E   
--2--2--2--2--2--2--2--2--|--2--2--2--2--2--2--2--2--|
--3--3--3--3--3--3--3--3--|--3--3--3--3--3--3--3--3--|
--2--2--2--2--2--2--2--2--|--2--2--2--2--2--2--2--2--|
--0--0--0--0--0--0--0--0--|--0--0--0--0--0--0--0--0--|
--------------------------|--------------------------|
--------------------------|--------------------------|


  E  E  E  E  E  E  E  E     E  E  E  E  E  E  E  E   
--------------------------|--2--2--2--2--2--2--2--2--|
--2--2--2--2--2--2--2--2--|--3--3--3--3--3--3--3--3--|
--2--2--2--2--2--2--2--2--|--2--2--2--2--2--2--2--2--|
--4--4--4--4--4--4--4--4--|--0--0--0--0--0--0--0--0--|
--4--4--4--4--4--4--4--4--|--------------------------|
--2--2--2--2--2--2--2--2--|--------------------------|


  E  E  E  E  E  E  E  E     E  E  E  E  E  E  E  E   
--------------------------|--2--2--2--2--2--2--2--2--|
--2--2--2--2--2--2--2--2--|--3--3--3--3--3--3--3--3--|
--2--2--2--2--2--2--2--2--|--2--2--2--2--2--2--2--2--|
--4--4--4--4--4--4--4--4--|--0--0--0--0--0--0--0--0--|
--4--4--4--4--4--4--4--4--|--------------------------|
--2--2--2--2--2--2--2--2--|--------------------------|


  E  E  E  E  E  E  E  E     E  E  E  E  E  E  E  E   
--------------------------|--2--2--2--2--2--2--2--2--|
--2--2--2--2--2--2--2--2--|--3--3--3--3--3--3--3--3--|
--2--2--2--2--2--2--2--2--|--2--2--2--2--2--2--2--2--|
--4--4--4--4--4--4--4--4--|--0--0--0--0--0--0--0--0--|
--4--4--4--4--4--4--4--4--|--------------------------|
--2--2--2--2--2--2--2--2--|--------------------------|


  E  E  E  E  E  E  E  E     E  E  E  E  E  E  E  E   
--0--0--0--0--0--0--0--0--|--0--0--0--0--0--0--0--0--|
--2--2--2--2--2--2--2--2--|--2--2--2--2--2--2--2--2--|
--2--2--2--2--2--2--2--2--|--2--2--2--2--2--2--2--2--|
--2--2--2--2--2--2--2--2--|--2--2--2--2--2--2--2--2--|
--0--0--0--0--0--0--0--0--|--0--0--0--0--0--0--0--0--|
--------------------------|--------------------------|


  E  E  E  E  E  E  E  E     E  E  E  E  E  E  E  E     W                 
--0--0--0--0--0--0--0--0--|--0--0--0--0--0--0--0--0--|-------------------|
--0--0--0--0--0--0--0--0--|--0--0--0--0--0--0--0--0--|-------------------|
--1--1--1--1--1--1--1--1--|--1--1--1--1--1--1--1--1--|--6----------------|
--2--2--2--2--2--2--2--2--|--2--2--2--2--2--2--2--2--|-------------------|
--2--2--2--2--2--2--2--2--|--2--2--2--2--2--2--2--2--|-------------------|
--0--0--0--0--0--0--0--0--|--0--0--0--0--0--0--0--0--|-------------------|


  W                   W                   W                   W                 
-------------------|-------------------|-------------------|-------------------|
-------------------|-------------------|-------------------|-------------------|
-------------------|-------------------|-------------------|--6----------------|
--7----------------|-------------------|-------------------|-------------------|
-------------------|--7----------------|-------------------|-------------------|
-------------------|-------------------|--7----------------|-------------------|


  W                   W                   W                 
-------------------|-------------------|-------------------|
-------------------|-------------------|-------------------|
-------------------|-------------------|-------------------|
--7----------------|-------------------|--9----------------|
-------------------|--7----------------|-------------------|
-------------------|-------------------|-------------------|


  E  E  E  E  E  E  E  E     E  E  E  E  E  E  E  E   
--------------------------|--2--2--2--2--2--2--2--2--|
--2--2--2--2--2--2--2--2--|--3--3--3--3--3--3--3--3--|
--2--2--2--2--2--2--2--2--|--2--2--2--2--2--2--2--2--|
--4--4--4--4--4--4--4--4--|--0--0--0--0--0--0--0--0--|
--4--4--4--4--4--4--4--4--|--------------------------|
--2--2--2--2--2--2--2--2--|--------------------------|


  E  E  E  E  E  E  E  E     E  E  E  E  E  E  E  E   
--0--0--0--0--0--0--0--0--|--0--0--0--0--0--0--0--0--|
--2--2--2--2--2--2--2--2--|--0--0--0--0--0--0--0--0--|
--2--2--2--2--2--2--2--2--|--1--1--1--1--1--1--1--1--|
--2--2--2--2--2--2--2--2--|--2--2--2--2--2--2--2--2--|
--0--0--0--0--0--0--0--0--|--2--2--2--2--2--2--2--2--|
--------------------------|--0--0--0--0--0--0--0--0--|


  E  E  E  E  E  E  E  E     E  E  E  E  E  E  E  E   
--------------------------|--2--2--2--2--2--2--2--2--|
--2--2--2--2--2--2--2--2--|--3--3--3--3--3--3--3--3--|
--2--2--2--2--2--2--2--2--|--2--2--2--2--2--2--2--2--|
--4--4--4--4--4--4--4--4--|--0--0--0--0--0--0--0--0--|
--4--4--4--4--4--4--4--4--|--------------------------|
--2--2--2--2--2--2--2--2--|--------------------------|


  E  E  E  E  E  E  E  E     E  E  E  E  E  E  E  E   
--0--0--0--0--0--0--0--0--|--0--0--0--0--0--0--0--0--|
--2--2--2--2--2--2--2--2--|--0--0--0--0--0--0--0--0--|
--2--2--2--2--2--2--2--2--|--1--1--1--1--1--1--1--1--|
--2--2--2--2--2--2--2--2--|--2--2--2--2--2--2--2--2--|
--0--0--0--0--0--0--0--0--|--2--2--2--2--2--2--2--2--|
--------------------------|--0--0--0--0--0--0--0--0--|


  E  E  E  E  E  E  E  E     E  E  E  E  E  E  E  E   
--2--2--2--2--2--2--2--2--|--0--0--0--0--0--0--0--0--|
--3--3--3--3--3--3--3--3--|--2--2--2--2--2--2--2--2--|
--2--2--2--2--2--2--2--2--|--2--2--2--2--2--2--2--2--|
--0--0--0--0--0--0--0--0--|--2--2--2--2--2--2--2--2--|
--------------------------|--0--0--0--0--0--0--0--0--|
--------------------------|--------------------------|


  E  E  E  E  E  E  E  E     E  E  E  E  E  E  E  E   
--2--2--2--2--2--2--2--2--|--0--0--0--0--0--0--0--0--|
--3--3--3--3--3--3--3--3--|--2--2--2--2--2--2--2--2--|
--2--2--2--2--2--2--2--2--|--2--2--2--2--2--2--2--2--|
--0--0--0--0--0--0--0--0--|--2--2--2--2--2--2--2--2--|
--------------------------|--0--0--0--0--0--0--0--0--|
--------------------------|--------------------------|


  E  E  E  E  E  E  E  E     E  E  E  E  E  E  E  E   
--2--2--2--2--2--2--2--2--|--0--0--0--0--0--0--0--0--|
--3--3--3--3--3--3--3--3--|--2--2--2--2--2--2--2--2--|
--2--2--2--2--2--2--2--2--|--2--2--2--2--2--2--2--2--|
--0--0--0--0--0--0--0--0--|--2--2--2--2--2--2--2--2--|
--------------------------|--0--0--0--0--0--0--0--0--|
--------------------------|--------------------------|


  E  E  E  E  E  E  E  E     E  E  E  E  E  E  E  E   
--------------------------|--------------------------|
--4--4--4--4--4--4--4--4--|--4--4--4--4--4--4--4--4--|
--4--4--4--4--4--4--4--4--|--4--4--4--4--4--4--4--4--|
--4--4--4--4--4--4--4--4--|--4--4--4--4--4--4--4--4--|
--2--2--2--2--2--2--2--2--|--2--2--2--2--2--2--2--2--|
--------------------------|--------------------------|


  E  E  E  E  E  E  E  E     E  E  E  E  E  E  E  E     W                  
--2--2--2--2--2--2--2--2--|--2--2--2--2--2--2--2--2--|--0----------------||
--3--3--3--3--3--3--3--3--|--3--3--3--3--3--3--3--3--|--2----------------||
--2--2--2--2--2--2--2--2--|--2--2--2--2--2--2--2--2--|--2----------------||
--0--0--0--0--0--0--0--0--|--0--0--0--0--0--0--0--0--|--2----------------||
--------------------------|--------------------------|--0----------------||
--------------------------|--------------------------|-------------------||




===================================================================
===================================================================



Guitar 2



     H.           E  E       Q    E   E  E  E  E  E   
E||----------------------|---------------------------|
B||------------------2s--|--10----9s--7--------------|
G||----------------------|------------------9-----6--|
D||----------------------|---------------------------|
A||----------------------|---------------------------|
E||----------------------|---------------------------|


  E  E  E  E  E   S  E   S E       Q    E   E  E  E  E  E   
-------------------------------|---------------------------|
---------------------------2s--|--10----9s--7-----------7--|
-------------------------------|------------------9--------|
-----9-----7--7s--9s-7s--9-----|---------------------------|
-------------------------------|---------------------------|
-------------------------------|---------------------------|


  H.           E  E       Q    E   E  E  E  E  E   
----------------------|---------------------------|
------------------2s--|--10----9s--7--------------|
--9-------------------|------------------9-----6--|
----------------------|---------------------------|
----------------------|---------------------------|
----------------------|---------------------------|


  E  E  E  E  E   S  E   S E       Q    E   E  E  E  E  E    
-------------------------------|----------------------------|
---------------------------2s--|--10----9s--7-----------7s--|
-------------------------------|------------------9---------|
-----9-----7--7s--9s-7s--9-----|----------------------------|
-------------------------------|----------------------------|
-------------------------------|----------------------------|


   W                    H        H                                         
--------------------|---------------------|-------|-------|-------|-------|
--12----------------|--10-----------------|-------|-------|-------|-------|
--------------------|---------------------|-------|-------|-------|-------|
--------------------|---------------------|-------|-------|-------|-------|
--------------------|---------------------|-------|-------|-------|-------|
--------------------|---------------------|-------|-------|-------|-------|


-------|-------|-------|-------|-------|-------|-------|-------|-------|-------|
-------|-------|-------|-------|-------|-------|-------|-------|-------|-------|
-------|-------|-------|-------|-------|-------|-------|-------|-------|-------|
-------|-------|-------|-------|-------|-------|-------|-------|-------|-------|
-------|-------|-------|-------|-------|-------|-------|-------|-------|-------|
-------|-------|-------|-------|-------|-------|-------|-------|-------|-------|


                  H.           E  E       Q    E   E  E  E  E  E   
-------|-------|----------------------|---------------------------|
-------|-------|------------------2s--|--10----9s--7--------------|
-------|-------|----------------------|------------------9-----6--|
-------|-------|----------------------|---------------------------|
-------|-------|----------------------|---------------------------|
-------|-------|----------------------|---------------------------|


  E  E  E  E  E   S  E   S E       Q    E   E  E  E  E  E   
-------------------------------|---------------------------|
---------------------------2s--|--10----9s--7-----------7--|
-------------------------------|------------------9--------|
-----9-----7--7s--9s-7s--9-----|---------------------------|
-------------------------------|---------------------------|
-------------------------------|---------------------------|


  H.           E  E       Q    E   E  E  E  E  E   
----------------------|---------------------------|
------------------2s--|--10----9s--7--------------|
--9-------------------|------------------9-----6--|
----------------------|---------------------------|
----------------------|---------------------------|
----------------------|---------------------------|


  E  E  E  E  E   S  E   S E       Q    E   E  E  E  E  E    
-------------------------------|----------------------------|
---------------------------2s--|--10----9s--7-----------7s--|
-------------------------------|------------------9---------|
-----9-----7--7s--9s-7s--9-----|----------------------------|
-------------------------------|----------------------------|
-------------------------------|----------------------------|


                       ^                                                  
   W                   H.           Q                                     
--------------------|--5-----------------|-------|-------|-------|-------|
--12----------------|--5-----------------|-------|-------|-------|-------|
--------------------|--6-----------------|-------|-------|-------|-------|
--------------------|--7-----------------|-------|-------|-------|-------|
--------------------|--------------------|-------|-------|-------|-------|
--------------------|--------------------|-------|-------|-------|-------|


                          E  E  E  Q    E  Q        E  E  E  Q    Q.       
-------|-------|-------|-----------2----0--------|-----------2----0-------|
-------|-------|-------|--------3----------3~----|--------2-------5~------|
-------|-------|-------|-----2-------------------|-----2------------------|
-------|-------|-------|-------------------------|------------------------|
-------|-------|-------|-------------------------|------------------------|
-------|-------|-------|-------------------------|------------------------|


  E  E  E  Q    Q    E     E  Q    Q    Q.         E  E  E  Q    E  Q      
-----------2----0----5--|--L--4----2----0-------|-----------2----0--------|
--------3---------------|---------------5~------|--------3----------3~----|
-----2------------------|-----------------------|-----2-------------------|
------------------------|-----------------------|-------------------------|
------------------------|-----------------------|-------------------------|
------------------------|-----------------------|-------------------------|


  E  E  E  Q    Q.         H.           E  E     W                 
-----------2----0-------|---------------------|-------------------|
--------2-------5~------|--4------------2-----|-------------------|
-----2------------------|------------------4--|--L----------------|
------------------------|---------------------|-------------------|
------------------------|---------------------|-------------------|
------------------------|---------------------|-------------------|


          PM                                             
  E   E   E   Q     Q    E     W                         
-------------------------9--|--L----------------|-------|
-----12--12--12----10-------|-------------------|-------|
----------------------------|-------------------|-------|
----------------------------|-------------------|-------|
----------------------------|-------------------|-------|
----------------------------|-------------------|-------|


  E  E  E  H        E     H        H           E  E  E  H        E   
-----2-----0--------L--|--L-----------------|-----2-----------------|
--3--------------------|--------------------|--3--------2--------L--|
--------2--------------|--------------------|--------2--------------|
-----------------------|--------------------|-----------------------|
-----------------------|--------------------|-----------------------|
-----------------------|--------------------|-----------------------|


  H        H           E  E  E  H        E     H        H                 
--------------------|-----2-----0--------L--|--L-----------------|-------|
--L-----------------|--3--------------------|--------------------|-------|
--------------------|--------2--------------|--------------------|-------|
--------------------|-----------------------|--------------------|-------|
--------------------|-----------------------|--------------------|-------|
--------------------|-----------------------|--------------------|-------|


  H.           E  E     H        H           W                 
---------------------|--------------------|-------------------|
--2------------5-----|--------------------|-------------------|
------------------4--|--L-----------------|--6----------------|
---------------------|--------------------|-------------------|
---------------------|--------------------|-------------------|
---------------------|--------------------|-------------------|


  W                   W                   W                   W                 
-------------------|-------------------|-------------------|-------------------|
-------------------|-------------------|-------------------|-------------------|
-------------------|-------------------|-------------------|--6----------------|
--7----------------|-------------------|-------------------|-------------------|
-------------------|--7----------------|-------------------|-------------------|
-------------------|-------------------|--7----------------|-------------------|


  W                   W                   H.           E  E    
-------------------|-------------------|----------------------|
-------------------|-------------------|------------------2s--|
-------------------|-------------------|----------------------|
--7----------------|-------------------|--9-------------------|
-------------------|--7----------------|----------------------|
-------------------|-------------------|----------------------|


   Q    E   E  E  E  E  E     E  E  E  E  E   S  E   S E    
---------------------------|-------------------------------|
--10----9s--7--------------|---------------------------2s--|
------------------9-----6--|-------------------------------|
---------------------------|-----9-----7--7s--9s-7s--9-----|
---------------------------|-------------------------------|
---------------------------|-------------------------------|


   Q    E   E  E  E  E  E     H.           E  E       Q    E   E  E  E  E  E   
---------------------------|----------------------|---------------------------|
--10----9s--7-----------7--|------------------2s--|--10----9s--7--------------|
------------------9--------|--9-------------------|------------------9-----6--|
---------------------------|----------------------|---------------------------|
---------------------------|----------------------|---------------------------|
---------------------------|----------------------|---------------------------|


  E  E  E  E  E   S  E   S E       Q    E   E  E  E  E  E    
-------------------------------|----------------------------|
---------------------------2s--|--10----9s--7-----------7s--|
-------------------------------|------------------9---------|
-----9-----7--7s--9s-7s--9-----|----------------------------|
-------------------------------|----------------------------|
-------------------------------|----------------------------|


   W                   E  E  E  Q    E  Q        E  E  E  Q    Q.       
--------------------|-----------2----0--------|-----------2----0-------|
--12----------------|--------3----------3~----|--------2-------5~------|
--------------------|-----2-------------------|-----2------------------|
--------------------|-------------------------|------------------------|
--------------------|-------------------------|------------------------|
--------------------|-------------------------|------------------------|


  E  E  E  Q    Q    E     E  Q    Q    Q.         E  E  E  Q    E  Q      
-----------2----0----5--|--L--4----2----0-------|-----------2----0--------|
--------3---------------|---------------5~------|--------3----------3~----|
-----2------------------|-----------------------|-----2-------------------|
------------------------|-----------------------|-------------------------|
------------------------|-----------------------|-------------------------|
------------------------|-----------------------|-------------------------|


  E  E  E  Q    Q.         H.           E  E     W                 
-----------2----0-------|---------------------|-------------------|
--------2-------5~------|--4------------2-----|-------------------|
-----2------------------|------------------4--|--L----------------|
------------------------|---------------------|-------------------|
------------------------|---------------------|-------------------|
------------------------|---------------------|-------------------|


          PM                                              
  E   E   E   Q     Q    E     W                          
-------------------------9--|--L----------------|-------||
-----12--12--12----10-------|-------------------|-------||
----------------------------|-------------------|-------||
----------------------------|-------------------|-------||
----------------------------|-------------------|-------||
----------------------------|-------------------|-------||




Duration Legend
---------------
W - whole
H - half
Q - quarter
E - 8th
S - 16th
T - 32nd
X - 64th
. - note dotted
|-n-|  - n-tuplets


Tablature Legend
----------------
L - tied note
x - dead note
g - grace note
(n) - ghost note
> - accentuded note
NH - natural harmonic
AH - artificial harmonic
TH - tapped harmonic
SH - semi harmonic
PH - pitch harmonic
h - hammer on
p - pull off
b - bend
br - bendRelease
pb - preBend
pbr - preBendRelease
brb - bendReleaseBend
\n/ - tremolo bar dip
\n - tremolo bar dive
-/n - tremolo bar Release up
/n\ - tremolo bar inverted dip
/n - tremolo bar return
-\n - tremolo bar Release down
S - shift slide
s - legato slide
/ -  slide into from below or out of upwards
\ -  slide into from above or out of downwards
~ - vibrato
W - wide vibrato
tr - trill
TP - tremolo picking
T - tapping
S - slap
P - pop
< - fade in
^ - brush up
v - brush down





Comments


Popular Collective Soul tabs & chords
New Vibration Bass Tabs
No More No Less 2 Bass Tabs
How Do You Love 1 Chords
No More No Less Chords
Staring Down Chords
Goodnight Good Guy Tabs
Shine 3 Tabs
Spit Me Out Intro Tabs
Turn Around  Tabs
Man Without Skin Ukulele


Song lyrics



↑ Back to top | Tablatures and chords are parodies/interpretations of the original songs. You may use it for private study, scholarship, research or language learning purposes only
© 2014 AZChords.com Contact us | Privacy policy | DMCA | Add/correct tabs | Request tabs | Top 50 tabs