>
 >
Bearing Witness

Bearing Witness Guitar Tabs

Collective Soul - Bearing Witness chords, tabs, tablatures, lyrics

Guitar lessons | Add/correct | Request | Top 50 tabs Artists:  A B C D E F G H I J K L M N O P Q R S T U V W X Y Z 0-9

Bearing Witness Guitar Tabs – Collective Soul

CD, Sheet music, Poster

Do you like Bearing Witness? Share with your friends now
Bass TabsChordsChords v2TabsTabs v2UkuleleUkulele v2
-------------------------------------------------------------------------------
                             SONG NAME - Band Name
-------------------------------------------------------------------------------

Tuning: standard EADGBE

intro:

   |F#m      |D          |A         |E
E|--------------------------------------------|
B|-s10-9s7----------------s10-9s7---7---------|
G|----------9-6--------------------9-9--------|
D|--------------9-7-7h9p7---------------------|
A|--------------------------------------------|
E|--------------------------------------------|

  |F#m       |D          |A           |E
E|--------------------------------------------|
B|-s10-9s7----------------s10-9s7---7-s12-----|
G|----------9-6--------------------9----------|
D|--------------9-7-7h9p7---------------------|
A|--------------------------------------------|
E|--------------------------------------------|

F#m         D
 Another day newspapers say
 A               E
 Life what'd you do to me
F#m              D
 I'm always here, you're always there
 A              E
 Hope that's my company

CHORUS:
      D                  A
 Yeah stars have only so many wishes though
 D                    A
 They can't tell what we already know
     D                  A                   B
 See I'm just gathering all my eyes can see through
                        D
 I'm bearing witness to you
                        F#m
 I'm bearing witness to you

[Play Intro from F#m above]


F#m            D
 Familiar words the evening stirs
 A               E
 Life what'd you say to me
F#m               D
 I'm promised here, you're precious there
 A              E
 Love you're my destiny

[Play chorus]

Fill-ins for Chorus 2:
  D         |A         |D         |A
E|-(0)-2-0----(0)-2-0----(0)-2-0---5-4-2-0---|
B|---------2----------2----------2---------2-|
G|-------------------------------------------|
D|-------------------------------------------|
A|-------------------------------------------|
E|-------------------------------------------|

  D         |A         |B
E|-(0)-2-0----(0)-2-0------------------------|
B|---------2----------24~------2p0----------|
G|-------------------------------------------|
D|-------------------------------------------|
A|-------------------------------------------|
E|-------------------------------------------|

  D                    |F#m (enters Bridge)
E|---7-7-5-9--------------|
B|------------------------|
G|------------------------|
D|------------------------|
A|------------------------|
E|------------------------|...


Bridge:

 F#m           D
 Somedays I surrender
 F#m          D
 Somedays I resolve
 F#m              D
 But everyday I'd conquer
           A
 With your love
           E
 With you love

Fill-ins for Bridge
  F#m     |D       |F#m     |D
E|-----------2---0-------------2-----|
B|---------3----------------3-----2-|
G|-------------2-----------------2---|
D|-----------------------------------|
A|-----------------------------------|
E|-----------------------------------|

  F#m     |D       |A                |E
E|-----------2---0---------------------------------------|
B|---------3----------------------------------------2p0-|
G|-------------2-----------------------------------------|
D|-------------------------------------------------------|
A|-------------------------------------------------------|
E|-------------------------------------------------------|

[No guitar for 8 bars]

[Play Intro]

Last Chorus (same fill-ins as Chorus2):
   D                  A
 Yeah stars have only so many wishes though
 D                    A
 They can't tell what we already know
     D                  A                   B
 See I'm just gathering all my eyes can see through
                        D
 I'm bearing witness to you
                        A
 I'm bearing witness to you





Comments


Popular Collective Soul tabs & chords
Gel Bass Tabs
New Vibration Bass Tabs
Home Chords
How Do You Love? Chords
She Said 1 Chords
December Tabs
Feels Like (It Feels Alright) Tabs
Goodnight Goodguy Tabs
Perfect To Stay Tabs
Pefect To Stay Ukulele


Song lyrics



↑ Back to top | Tablatures and chords are parodies/interpretations of the original songs. You may use it for private study, scholarship, research or language learning purposes only
© 2014 AZChords.com Contact us | Privacy policy | DMCA | Add/correct tabs | Request tabs | Top 50 tabs