» » »

Cold War Kids, Hair Down Tabs (ver.2)

Artists:  A B C D E F G H I J K L M N O P Q R S T U V W X Y Z # 

Hair Down Tabs (ver.2)

Cold War Kids Tabs
 Rating:
4.5/5 (8 votes)
Hair Down lessons Tabs too difficult? Try these video lessons and learn fast
                -------------------------------------------------------------------------------
                             Hair Down - Cold War Kids
-------------------------------------------------------------------------------

STANDARD TUNING:

Intro:
e|--------------------------------|
B|-----10-------------10----------|
G|-9-11--11--9--9-9-11--11--------|
D|---------11-11----------11------|
A|--------------------------------|
E|--------------------------------|
  x 3


Riff for the Verse

e|-----------------------------------------------------------------|
B|-----------------------------------------------------------------|
G|-----------------------------------------------------------------|
D|-----------------------------------------------------------------|
A|-----------------------------------------------------------------|
E|--5----5-5-7-7-7-12----0--0-----5----5-5--7-7-7---0--------------|
   (x2)

Chorus:

                                        v      ^ v  ^  v
e|------5----5----5--5--x-x--7--7--x-x--12----12-12-12-12----------------|
B|-----5-----5----5--5--x-x--7--7--x-x--12----12-12-12-12----------------|
G|----6------6----6--6--x-x--8--8--x-x--13----13-13-13-13----------------|
D|---7-------7----7--7--x-x--9--9--x-x--14----14-14-14-14----------------|
A|-----------------------------------------------------------------------|
E|-----------------------------------------------------------------------|
  (x4)

Riff for the Verse

e|-----------------------------------------------------------------|
B|-----------------------------------------------------------------|
G|-----------------------------------------------------------------|
D|-----------------------------------------------------------------|
A|-----------------------------------------------------------------|
E|--5----5-5-7-7-7-12----0--0-----5----5-5--7-7-7---0--------------|
   (x2)

After 2nd Verse

he strums fast here so whenever you put your pinky onto the 7th fret on
high e don't leave it on there for too long just one or 2 strums then release it

e|--4--7--4--7--4--7--7\5-------------|
B|--5--5--5--5--5--5------------------|
G|------------------------------------|
D|------------------------------------|
A|------------------------------------|
E|------------------------------------|
  (x2)

e|--4--7--4--7--4--7---4--7--4----x-x-x-x-x-x-x-------------|
B|--5--5--5--5--5--5---5--5--5----7-7-7-5-5-5-5-------------|
G|--------------------------------x-x-x-x-x-x-x-------------|
D|----------------------------------------------------------|
A|----------------------------------------------------------|
E|----------------------------------------------------------|

Riff for the Verse

e|-----------------------------------------------------------------|
B|-----------------------------------------------------------------|
G|-----------------------------------------------------------------|
D|-----------------------------------------------------------------|
A|-----------------------------------------------------------------|
E|--5----5-5-7-7-7-12----0--0-----5----5-5--7-7-7---0--------------|
   (x2)

Chorus:

                                        v      ^ v  ^  v
e|------5----5----5--5--x-x--7--7--x-x--12----12-12-12-12----------------|
B|-----5-----5----5--5--x-x--7--7--x-x--12----12-12-12-12----------------|
G|----6------6----6--6--x-x--8--8--x-x--13----13-13-13-13----------------|
D|---7-------7----7--7--x-x--9--9--x-x--14----14-14-14-14----------------|
A|-----------------------------------------------------------------------|
E|-----------------------------------------------------------------------|
  (x4)

After the 2nd Chrous


e|--4--7--4--7--4--7--7\5-------------|
B|--5--5--5--5--5--5------------------|
G|------------------------------------|
D|------------------------------------|
A|------------------------------------|
E|------------------------------------|
  (x4)

during this short little break you'll have to listen to the song to make sure you're 
it right
e|--4/x---x--x\4--7--4--7--4--7---x-x-x-x-x-x-x------|
B|--5/17-15-17\5--5--5--5--5--5---7-7-7-5-5-5-5------|
G|--------------------------------x-x-x-x-x-x-x------|
D|---------------------------------------------------|
A|---------------------------------------------------|
E|---------------------------------------------------|

at the end here it's pretty much repeating itself so it'll be easy
to figure out how many times to play it.

any questions just comment.

v =   strum down
^ =   strum up
/ =   slide up
\ =   slide down
x =   muted string
            
Submit corrections

comments powered by Disqus
↑ Back to top | Cold War Kids Tabs for Hair Down. Lyrics for acoustic guitar and electric guitar. Tablatures and chords are parodies/interpretations of the original songs. You may use it for private study, scholarship, research or language learning purposes only