» » »

Hair Down Tabs (ver.1)

Artists:  A B C D E F G H I J K L M N O P Q R S T U V W X Y Z # 

Hair Down Tabs (ver.1)

Cold War Kids
Rating:
4/5 (1 vote)

Hard to play? Try these video lessons and learn fast.
                Its definitely not perfect, but a good start. This band is amazing.





Standard Tuning
-------------------------------------------------------------------------------
-------------------------------------------------------------------------------

Intro:						[first heard at 0:00]

e|--------------------------------------------------------------------------|
B|-----10-------------10-----------------10-------------10------------------|
G|-9/11--11--9--9-9/11--11---------9-9/11--11--9--9-9/11--11----------------|
D|---------11-11----------11-----------------11-11----------11--------------|
A|--------------------------------------------------------------------------|
E|--------------------------------------------------------------------------|
  x 1 and 1/2


Main Riff during Verse (x2)			[first heard at 0:45]

e|--------------------------------------------------------------------------|
B|--------------------------------------------------------------------------|
G|--------------------------------------------------------------------------|
D|--------------------------------------------------------------------------|
A|-------------------7------------------------------------------------------|
E|--5-----5-5-7-7-7------0--0-----5----5-5--7-7-7---0-----------------------|


Main rhythm: 					[first heard at 1:05]

(has the same rhythm/timing as the main riff)(x4)

e|------5----5----5--5--x-x--7--7--x-x--0----0--0---------------------------|
B|-----5-----5----5--5--x-x--7--7--x-x--0----0--0---------------------------|
G|----6------6----6--6--x-x--8--8--x-x--9----9--9---------------------------|
D|---7-------7----7--7--x-x--9--9--x-x--9----9--9---------------------------|
A|--7--------7----7--7--x-x--9--9--x-x--7----7--7---------------------------|
E|-5---------5----5--5--x-x--7--7--x-x--0----0--0---------------------------|


Main Riff during Verse (x2)			[comes back at 1:23]

e|--------------------------------------------------------------------------|
B|--------------------------------------------------------------------------|
G|--------------------------------------------------------------------------|
D|--------------------------------------------------------------------------|
A|-------------------7------------------------------------------------------|
E|--5-----5-5-7-7-7------0--0-----5----5-5--7-7-7---0-----------------------|


lead guitar riff 				[first heard at 1:43]

(listen to song for strumming; fast as possible continuous up down strokes) (x3)
e|--------------------------------------------------------------------------|
B|------------9--12----------9--12---------9-12-------7---------------------|
G|-----9-----------------9-------------9------------------------------------|
D|--------------------------------------------------------------------------|
A|--------------------------------------------------------------------------|
E|--------------------------------------------------------------------------|


order for whole song

main riff
main rhythm
lead guitar riff

(he adds some different notes to the main guitar riff around the 3 minute mark for about 5 seconds)


/  <---means slide up
            
Hard to play? Try these video lessons and learn fast. | Correct




comments powered by Disqus
↑ Back to top | Tablatures and chords are parodies/interpretations of the original songs. You may use it for private study, scholarship, research or language learning purposes only